  0
SECTION
  2
HEADER
  9
$ACADVER
  1
AC1015
  9
$ACADMAINTVER
 70
     6
  9
$DWGCODEPAGE
  3
ANSI_1252
  9
$INSBASE
 10
0.0
 20
0.0
 30
0.0
  9
$EXTMIN
 10
1.000000000000000E+20
 20
1.000000000000000E+20
 30
1.000000000000000E+20
  9
$EXTMAX
 10
-1.000000000000000E+20
 20
-1.000000000000000E+20
 30
-1.000000000000000E+20
  9
$LIMMIN
 10
0.0
 20
0.0
  9
$LIMMAX
 10
12.0
 20
9.0
  9
$ORTHOMODE
 70
     0
  9
$REGENMODE
 70
     1
  9
$FILLMODE
 70
     1
  9
$QTEXTMODE
 70
     0
  9
$MIRRTEXT
 70
     1
  9
$LTSCALE
 40
1.0
  9
$ATTMODE
 70
     1
  9
$TEXTSIZE
 40
0.2
  9
$TRACEWID
 40
0.05
  9
$TEXTSTYLE
  7
Standard
  9
$CLAYER
  8
0
  9
$CELTYPE
  6
ByLayer
  9
$CECOLOR
 62
   256
  9
$CELTSCALE
 40
1.0
  9
$DISPSILH
 70
     0
  9
$DIMSCALE
 40
1.0
  9
$DIMASZ
 40
0.18
  9
$DIMEXO
 40
0.0625
  9
$DIMDLI
 40
0.38
  9
$DIMRND
 40
0.0
  9
$DIMDLE
 40
0.0
  9
$DIMEXE
 40
0.18
  9
$DIMTP
 40
0.0
  9
$DIMTM
 40
0.0
  9
$DIMTXT
 40
0.18
  9
$DIMCEN
 40
0.09
  9
$DIMTSZ
 40
0.0
  9
$DIMTOL
 70
     0
  9
$DIMLIM
 70
     0
  9
$DIMTIH
 70
     1
  9
$DIMTOH
 70
     1
  9
$DIMSE1
 70
     0
  9
$DIMSE2
 70
     0
  9
$DIMTAD
 70
     0
  9
$DIMZIN
 70
     0
  9
$DIMBLK
  1

  9
$DIMASO
 70
     1
  9
$DIMSHO
 70
     1
  9
$DIMPOST
  1

  9
$DIMAPOST
  1

  9
$DIMALT
 70
     0
  9
$DIMALTD
 70
     2
  9
$DIMALTF
 40
25.4
  9
$DIMLFAC
 40
1.0
  9
$DIMTOFL
 70
     0
  9
$DIMTVP
 40
0.0
  9
$DIMTIX
 70
     0
  9
$DIMSOXD
 70
     0
  9
$DIMSAH
 70
     0
  9
$DIMBLK1
  1

  9
$DIMBLK2
  1

  9
$DIMSTYLE
  2
Standard
  9
$DIMCLRD
 70
     0
  9
$DIMCLRE
 70
     0
  9
$DIMCLRT
 70
     0
  9
$DIMTFAC
 40
1.0
  9
$DIMGAP
 40
0.09
  9
$DIMJUST
 70
     0
  9
$DIMSD1
 70
     0
  9
$DIMSD2
 70
     0
  9
$DIMTOLJ
 70
     1
  9
$DIMTZIN
 70
     0
  9
$DIMALTZ
 70
     0
  9
$DIMALTTZ
 70
     0
  9
$DIMUPT
 70
     0
  9
$DIMDEC
 70
     4
  9
$DIMTDEC
 70
     4
  9
$DIMALTU
 70
     2
  9
$DIMALTTD
 70
     2
  9
$DIMTXSTY
  7
Standard
  9
$DIMAUNIT
 70
     0
  9
$DIMADEC
 70
     0
  9
$DIMALTRND
 40
0.0
  9
$DIMAZIN
 70
     0
  9
$DIMDSEP
 70
    46
  9
$DIMATFIT
 70
     3
  9
$DIMFRAC
 70
     0
  9
$DIMLDRBLK
  1

  9
$DIMLUNIT
 70
     2
  9
$DIMLWD
 70
    -2
  9
$DIMLWE
 70
    -2
  9
$DIMTMOVE
 70
     0
  9
$LUNITS
 70
     2
  9
$LUPREC
 70
     4
  9
$SKETCHINC
 40
0.1
  9
$FILLETRAD
 40
0.5
  9
$AUNITS
 70
     0
  9
$AUPREC
 70
     0
  9
$MENU
  1
.
  9
$ELEVATION
 40
0.0
  9
$PELEVATION
 40
0.0
  9
$THICKNESS
 40
0.0
  9
$LIMCHECK
 70
     0
  9
$CHAMFERA
 40
0.5
  9
$CHAMFERB
 40
0.5
  9
$CHAMFERC
 40
1.0
  9
$CHAMFERD
 40
0.0
  9
$SKPOLY
 70
     0
  9
$TDCREATE
 40
2458926.612876574
  9
$TDUCREATE
 40
2458926.071209908
  9
$TDUPDATE
 40
2458926.612876667
  9
$TDUUPDATE
 40
2458926.07121
  9
$TDINDWG
 40
0.0000000116
  9
$TDUSRTIMER
 40
0.0000000116
  9
$USRTIMER
 70
     1
  9
$ANGBASE
 50
0.0
  9
$ANGDIR
 70
     0
  9
$PDMODE
 70
     0
  9
$PDSIZE
 40
0.0
  9
$PLINEWID
 40
0.0
  9
$SPLFRAME
 70
     0
  9
$SPLINETYPE
 70
     6
  9
$SPLINESEGS
 70
     8
  9
$HANDSEED
  5
344
  9
$SURFTAB1
 70
     6
  9
$SURFTAB2
 70
     6
  9
$SURFTYPE
 70
     6
  9
$SURFU
 70
     6
  9
$SURFV
 70
     6
  9
$UCSBASE
  2

  9
$UCSNAME
  2

  9
$UCSORG
 10
0.0
 20
0.0
 30
0.0
  9
$UCSXDIR
 10
1.0
 20
0.0
 30
0.0
  9
$UCSYDIR
 10
0.0
 20
1.0
 30
0.0
  9
$UCSORTHOREF
  2

  9
$UCSORTHOVIEW
 70
     0
  9
$UCSORGTOP
 10
0.0
 20
0.0
 30
0.0
  9
$UCSORGBOTTOM
 10
0.0
 20
0.0
 30
0.0
  9
$UCSORGLEFT
 10
0.0
 20
0.0
 30
0.0
  9
$UCSORGRIGHT
 10
0.0
 20
0.0
 30
0.0
  9
$UCSORGFRONT
 10
0.0
 20
0.0
 30
0.0
  9
$UCSORGBACK
 10
0.0
 20
0.0
 30
0.0
  9
$PUCSBASE
  2

  9
$PUCSNAME
  2

  9
$PUCSORG
 10
0.0
 20
0.0
 30
0.0
  9
$PUCSXDIR
 10
1.0
 20
0.0
 30
0.0
  9
$PUCSYDIR
 10
0.0
 20
1.0
 30
0.0
  9
$PUCSORTHOREF
  2

  9
$PUCSORTHOVIEW
 70
     0
  9
$PUCSORGTOP
 10
0.0
 20
0.0
 30
0.0
  9
$PUCSORGBOTTOM
 10
0.0
 20
0.0
 30
0.0
  9
$PUCSORGLEFT
 10
0.0
 20
0.0
 30
0.0
  9
$PUCSORGRIGHT
 10
0.0
 20
0.0
 30
0.0
  9
$PUCSORGFRONT
 10
0.0
 20
0.0
 30
0.0
  9
$PUCSORGBACK
 10
0.0
 20
0.0
 30
0.0
  9
$USERI1
 70
     0
  9
$USERI2
 70
     0
  9
$USERI3
 70
     0
  9
$USERI4
 70
     0
  9
$USERI5
 70
     0
  9
$USERR1
 40
0.0
  9
$USERR2
 40
0.0
  9
$USERR3
 40
0.0
  9
$USERR4
 40
0.0
  9
$USERR5
 40
0.0
  9
$WORLDVIEW
 70
     1
  9
$SHADEDGE
 70
     3
  9
$SHADEDIF
 70
    70
  9
$TILEMODE
 70
     1
  9
$MAXACTVP
 70
    64
  9
$PINSBASE
 10
0.0
 20
0.0
 30
0.0
  9
$PLIMCHECK
 70
     0
  9
$PEXTMIN
 10
1.000000000000000E+20
 20
1.000000000000000E+20
 30
1.000000000000000E+20
  9
$PEXTMAX
 10
-1.000000000000000E+20
 20
-1.000000000000000E+20
 30
-1.000000000000000E+20
  9
$PLIMMIN
 10
0.0
 20
0.0
  9
$PLIMMAX
 10
12.0
 20
9.0
  9
$UNITMODE
 70
     0
  9
$VISRETAIN
 70
     1
  9
$PLINEGEN
 70
     0
  9
$PSLTSCALE
 70
     1
  9
$TREEDEPTH
 70
  3020
  9
$CMLSTYLE
  2
Standard
  9
$CMLJUST
 70
     0
  9
$CMLSCALE
 40
1.0
  9
$PROXYGRAPHICS
 70
     1
  9
$MEASUREMENT
 70
     0
  9
$CELWEIGHT
370
    -1
  9
$ENDCAPS
280
     0
  9
$JOINSTYLE
280
     0
  9
$LWDISPLAY
290
     1
  9
$INSUNITS
 70
     4
  9
$HYPERLINKBASE
  1

  9
$STYLESHEET
  1

  9
$XEDIT
290
     1
  9
$CEPSNTYPE
380
     0
  9
$PSTYLEMODE
290
     1
  9
$FINGERPRINTGUID
  2
{D7039289-B5A3-40E9-AFCE-3AF5C6656CC2}
  9
$VERSIONGUID
  2
{FAEB1C32-E019-11D5-929B-00C0DF256EC4}
  9
$EXTNAMES
290
     1
  9
$PSVPSCALE
 40
0.0
  9
$OLESTARTUP
290
     0
  0
ENDSEC
  0
SECTION
  2
CLASSES
  0
CLASS
  1
ACDBDICTIONARYWDFLT
  2
AcDbDictionaryWithDefault
  3
ObjectDBX Classes
 90
        0
280
     0
281
     0
  0
CLASS
  1
VISUALSTYLE
  2
AcDbVisualStyle
  3
ObjectDBX Classes
 90
     4095
280
     0
281
     0
  0
CLASS
  1
MATERIAL
  2
AcDbMaterial
  3
ObjectDBX Classes
 90
     1153
280
     0
281
     0
  0
CLASS
  1
SUN
  2
AcDbSun
  3
SCENEOE
 90
     1024
280
     0
281
     0
  0
CLASS
  1
DICTIONARYVAR
  2
AcDbDictionaryVar
  3
ObjectDBX Classes
 90
        0
280
     0
281
     0
  0
CLASS
  1
ACDBPLACEHOLDER
  2
AcDbPlaceHolder
  3
ObjectDBX Classes
 90
        0
280
     0
281
     0
  0
CLASS
  1
LAYOUT
  2
AcDbLayout
  3
ObjectDBX Classes
 90
        0
280
     0
281
     0
  0
ENDSEC
  0
SECTION
  2
TABLES
  0
TABLE
  2
VPORT
  5
8
330
0
100
AcDbSymbolTable
 70
     1
  0
VPORT
  5
29
330
8
100
AcDbSymbolTableRecord
100
AcDbViewportTableRecord
  2
*Active
 70
     0
 10
0.0
 20
0.0
 11
1.0
 21
1.0
 12
0.0
 22
0.0
 13
0.0
 23
0.0
 14
0.5
 24
0.5
 15
0.5
 25
0.5
 16
0.0
 26
0.0
 36
1.0
 17
594.4993281255732
 27
420.5005173373662
 37
0.0
 40
841.0010346747324
 41
1.413789766276573
 42
50.0
 43
0.0
 44
0.0
 50
0.0
 51
0.0
 71
     0
 72
   100
 73
     1
 74
     3
 75
     0
 76
     0
 77
     0
 78
     0
281
     0
 65
     1
110
0.0
120
0.0
130
0.0
111
1.0
121
0.0
131
0.0
112
0.0
122
1.0
132
0.0
 79
     0
146
0.0
  0
ENDTAB
  0
TABLE
  2
LTYPE
  5
5
330
0
100
AcDbSymbolTable
 70
     1
  0
LTYPE
  5
14
330
5
100
AcDbSymbolTableRecord
100
AcDbLinetypeTableRecord
  2
ByBlock
 70
     0
  3

 72
    65
 73
     0
 40
0.0
  0
LTYPE
  5
15
330
5
100
AcDbSymbolTableRecord
100
AcDbLinetypeTableRecord
  2
ByLayer
 70
     0
  3

 72
    65
 73
     0
 40
0.0
  0
LTYPE
  5
16
330
5
100
AcDbSymbolTableRecord
100
AcDbLinetypeTableRecord
  2
Continuous
 70
     0
  3
Solid line
 72
    65
 73
     0
 40
0.0
  0
ENDTAB
  0
TABLE
  2
LAYER
  5
2
330
0
100
AcDbSymbolTable
 70
     2
  0
LAYER
  5
10
330
2
100
AcDbSymbolTableRecord
100
AcDbLayerTableRecord
  2
0
 70
     0
 62
     7
  6
Continuous
370
    -3
390
F
  0
LAYER
  5
40
330
2
100
AcDbSymbolTableRecord
100
AcDbLayerTableRecord
  2
Layer 1
 70
     0
 62
     7
  6
Continuous
370
    -3
390
F
  0
ENDTAB
  0
TABLE
  2
STYLE
  5
3
330
0
100
AcDbSymbolTable
 70
     1
  0
STYLE
  5
11
330
3
100
AcDbSymbolTableRecord
100
AcDbTextStyleTableRecord
  2
Standard
 70
     0
 40
0.0
 41
1.0
 50
0.0
 71
     0
 42
0.2
  3
txt
  4

  0
ENDTAB
  0
TABLE
  2
VIEW
  5
6
330
0
100
AcDbSymbolTable
 70
     0
  0
ENDTAB
  0
TABLE
  2
UCS
  5
7
330
0
100
AcDbSymbolTable
 70
     0
  0
ENDTAB
  0
TABLE
  2
APPID
  5
9
330
0
100
AcDbSymbolTable
 70
     1
  0
APPID
  5
12
330
9
100
AcDbSymbolTableRecord
100
AcDbRegAppTableRecord
  2
ACAD
 70
     0
  0
ENDTAB
  0
TABLE
  2
DIMSTYLE
  5
A
330
0
100
AcDbSymbolTable
 70
     1
100
AcDbDimStyleTable
  0
DIMSTYLE
105
27
330
A
100
AcDbSymbolTableRecord
100
AcDbDimStyleTableRecord
  2
Standard
 70
     0
178
     0
340
11
  0
ENDTAB
  0
TABLE
  2
BLOCK_RECORD
  5
1
330
0
100
AcDbSymbolTable
 70
     9
  0
BLOCK_RECORD
  5
1F
330
1
100
AcDbSymbolTableRecord
100
AcDbBlockTableRecord
  2
*Model_Space
340
22
  0
BLOCK_RECORD
  5
1B
330
1
100
AcDbSymbolTableRecord
100
AcDbBlockTableRecord
  2
*Paper_Space
340
1E
  0
BLOCK_RECORD
  5
23
330
1
100
AcDbSymbolTableRecord
100
AcDbBlockTableRecord
  2
*Paper_Space0
340
26
  0
BLOCK_RECORD
  5
41
330
1
100
AcDbSymbolTableRecord
100
AcDbBlockTableRecord
  2
block 2
340
0
102
{BLKREFS
331
42
102
}
  0
BLOCK_RECORD
  5
83
330
1
100
AcDbSymbolTableRecord
100
AcDbBlockTableRecord
  2
block 3
340
0
102
{BLKREFS
331
84
102
}
  0
BLOCK_RECORD
  5
C2
330
1
100
AcDbSymbolTableRecord
100
AcDbBlockTableRecord
  2
block 4
340
0
102
{BLKREFS
331
C3
102
}
  0
BLOCK_RECORD
  5
EB
330
1
100
AcDbSymbolTableRecord
100
AcDbBlockTableRecord
  2
block 5
340
0
102
{BLKREFS
331
EC
102
}
  0
BLOCK_RECORD
  5
100
330
1
100
AcDbSymbolTableRecord
100
AcDbBlockTableRecord
  2
block 6
340
0
102
{BLKREFS
331
101
102
}
  0
BLOCK_RECORD
  5
1B1
330
1
100
AcDbSymbolTableRecord
100
AcDbBlockTableRecord
  2
block 7
340
0
102
{BLKREFS
331
1B2
102
}
  0
BLOCK_RECORD
  5
2A7
330
1
100
AcDbSymbolTableRecord
100
AcDbBlockTableRecord
  2
block 8
340
0
102
{BLKREFS
331
2A8
102
}
  0
BLOCK_RECORD
  5
2B9
330
1
100
AcDbSymbolTableRecord
100
AcDbBlockTableRecord
  2
block 9
340
0
102
{BLKREFS
331
2BA
102
}
  0
ENDTAB
  0
ENDSEC
  0
SECTION
  2
BLOCKS
  0
BLOCK
  5
20
330
1F
100
AcDbEntity
  8
0
100
AcDbBlockBegin
  2
*Model_Space
 70
     0
 10
0.0
 20
0.0
 30
0.0
  3
*Model_Space
  1

  0
ENDBLK
  5
21
330
1F
100
AcDbEntity
  8
0
100
AcDbBlockEnd
  0
BLOCK
  5
1C
330
1B
100
AcDbEntity
 67
     1
  8
0
100
AcDbBlockBegin
  2
*Paper_Space
 70
     0
 10
0.0
 20
0.0
 30
0.0
  3
*Paper_Space
  1

  0
ENDBLK
  5
1D
330
1B
100
AcDbEntity
 67
     1
  8
0
100
AcDbBlockEnd
  0
BLOCK
  5
24
330
23
100
AcDbEntity
  8
0
100
AcDbBlockBegin
  2
*Paper_Space0
 70
     0
 10
0.0
 20
0.0
 30
0.0
  3
*Paper_Space0
  1

  0
ENDBLK
  5
25
330
23
100
AcDbEntity
  8
0
100
AcDbBlockEnd
  0
BLOCK
  5
43
330
41
100
AcDbEntity
  8
0
100
AcDbBlockBegin
  2
block 2
 70
     0
 10
0.0
 20
0.0
 30
0.0
  3
block 2
  1

  0
SPLINE
  5
45
330
41
100
AcDbEntity
  8
Layer 1
 62
    40
370
    13
100
AcDbSpline
210
0.0
220
0.0
230
1.0
 70
    11
 71
     3
 72
    50
 73
    46
 74
     0
 42
0.0000000001
 43
0.0000000001
 12
1.0
 22
0.0
 32
0.0
 13
1.0
 23
0.0
 33
0.0
 40
0.0
 40
0.0
 40
0.0
 40
0.0
 40
1.0
 40
1.0
 40
1.0
 40
2.0
 40
2.0
 40
2.0
 40
3.0
 40
3.0
 40
3.0
 40
4.0
 40
4.0
 40
4.0
 40
5.0
 40
5.0
 40
5.0
 40
6.0
 40
6.0
 40
6.0
 40
7.0
 40
7.0
 40
7.0
 40
8.0
 40
8.0
 40
8.0
 40
9.0
 40
9.0
 40
9.0
 40
10.0
 40
10.0
 40
10.0
 40
11.0
 40
11.0
 40
11.0
 40
12.0
 40
12.0
 40
12.0
 40
13.0
 40
13.0
 40
13.0
 40
14.0
 40
14.0
 40
14.0
 40
15.0
 40
15.0
 40
15.0
 40
15.0
 10
98.9227444506571
 20
803.5149387175433
 30
0.0
 10
98.9227444506571
 20
806.6510229818603
 30
0.0
 10
97.83707422476817
 20
809.3239158949663
 30
0.0
 10
95.66865531448285
 20
811.5326012685281
 30
0.0
 10
93.4993472393908
 20
813.7403974772831
 30
0.0
 10
90.86767346613253
 20
814.8481062879615
 30
0.0
 10
87.78138243085935
 20
814.8481062879615
 30
0.0
 10
84.70474518488646
 20
814.8481062879615
 30
0.0
 10
82.0808198477792
 20
813.7403974772831
 30
0.0
 10
79.91233742572255
 20
811.5316485919456
 30
0.0
 10
77.74302935063501
 20
809.3201051886671
 30
0.0
 10
76.65926447789538
 20
806.6453069223992
 30
0.0
 10
76.65926447789538
 20
803.5082064697384
 30
0.0
 10
76.65926447789538
 20
800.3692641757125
 30
0.0
 10
77.74201316228536
 20
797.7011346454741
 30
0.0
 10
79.91233742572255
 20
795.5029922260302
 30
0.0
 10
82.07891449462734
 20
793.3038971299967
 30
0.0
 10
84.70188715515853
 20
792.206731273419
 30
0.0
 10
87.77661904798116
 20
792.206731273419
 30
0.0
 10
90.26151711677976
 20
792.206731273419
 30
0.0
 10
92.45680150650243
 20
792.8819249186445
 30
0.0
 10
94.35669264592777
 20
794.2265326378731
 30
0.0
 10
96.25366224385385
 20
795.5720295218911
 30
0.0
 10
97.54650786911682
 20
797.3817974572357
 30
0.0
 10
98.23510249817501
 20
799.6480244959823
 30
0.0
 10
98.23510249817501
 20
799.6480244959823
 30
0.0
 10
92.85578245649016
 20
799.6480244959823
 30
0.0
 10
92.85578245649016
 20
799.6480244959823
 30
0.0
 10
92.42898335048483
 20
798.8146230273886
 30
0.0
 10
91.77011223059898
 20
798.1452089533964
 30
0.0
 10
90.87338952558842
 20
797.646514521792
 30
0.0
 10
89.9766668205846
 20
797.1458512252751
 30
0.0
 10
88.98982091149406
 20
796.8984093626349
 30
0.0
 10
87.9099302568301
 20
796.8984093626349
 30
0.0
 10
86.16926312912425
 20
796.8984093626349
 30
0.0
 10
84.71433546241578
 20
797.5275569733519
 30
0.0
 10
83.54717963339785
 20
798.791568254254
 30
0.0
 10
82.87103331160108
 20
799.5300831358828
 30
0.0
 10
82.38675605218064
 20
800.3596738981703
 30
0.0
 10
82.09809504969044
 20
801.2765298348133
 30
0.0
 10
82.09809504969044
 20
801.2765298348133
 30
0.0
 10
98.73570228292385
 20
801.2765298348133
 30
0.0
 10
98.73570228292385
 20
801.2765298348133
 30
0.0
 10
98.8603758908215
 20
802.0082489568724
 30
0.0
 10
98.9227444506571
 20
802.7563541160437
 30
0.0
 10
98.9227444506571
 20
803.5149387175433
 30
0.0
  0
SPLINE
  5
46
330
41
100
AcDbEntity
  8
Layer 1
 62
    40
370
    13
100
AcDbSpline
210
0.0
220
0.0
230
1.0
 70
    11
 71
     3
 72
    20
 73
    16
 74
     0
 42
0.0000000001
 43
0.0000000001
 12
1.0
 22
0.0
 32
0.0
 13
1.0
 23
0.0
 33
0.0
 40
0.0
 40
0.0
 40
0.0
 40
0.0
 40
1.0
 40
1.0
 40
1.0
 40
2.0
 40
2.0
 40
2.0
 40
3.0
 40
3.0
 40
3.0
 40
4.0
 40
4.0
 40
4.0
 40
5.0
 40
5.0
 40
5.0
 40
5.0
 10
81.94941399207828
 20
805.340012989881
 30
0.0
 10
82.23616964142111
 20
806.4381315230274
 30
0.0
 10
82.7521392749223
 20
807.4077657419739
 30
0.0
 10
83.49446486286287
 20
808.2488521349511
 30
0.0
 10
84.64917238462579
 20
809.5205483402342
 30
0.0
 10
86.0791399250459
 20
810.155412010412
 30
0.0
 10
87.78811467866457
 20
810.155412010412
 30
0.0
 10
89.4942949143205
 20
810.155412010412
 30
0.0
 10
90.92616780789504
 20
809.5205483402342
 30
0.0
 10
92.0808753296493
 20
808.2488521349511
 30
0.0
 10
92.84905020868237
 20
807.4202140492395
 30
0.0
 10
93.35739842958223
 20
806.4515325068688
 30
0.0
 10
93.60769832195972
 20
805.340012989881
 30
0.0
 10
93.60769832195972
 20
805.340012989881
 30
0.0
 10
81.94941399207828
 20
805.340012989881
 30
0.0
 10
81.94941399207828
 20
805.340012989881
 30
0.0
  0
POLYLINE
  5
47
330
41
100
AcDbEntity
  8
Layer 1
 62
    40
370
    13
100
AcDb2dPolyline
 66
     1
 10
0.0
 20
0.0
 30
0.0
  0
VERTEX
  5
48
330
47
100
AcDbEntity
  8
Layer 1
 62
    40
370
    13
100
AcDbVertex
100
AcDb2dVertex
 10
120.5551975337298
 20
814.1594576340824
 30
0.0
  0
VERTEX
  5
49
330
47
100
AcDbEntity
  8
Layer 1
 62
    40
370
    13
100
AcDbVertex
100
AcDb2dVertex
 10
114.6099872395155
 20
814.1594576340824
 30
0.0
  0
VERTEX
  5
4A
330
47
100
AcDbEntity
  8
Layer 1
 62
    40
370
    13
100
AcDbVertex
100
AcDb2dVertex
 10
107.7633223248048
 20
804.0145883096317
 30
0.0
  0
VERTEX
  5
4B
330
47
100
AcDbEntity
  8
Layer 1
 62
    40
370
    13
100
AcDbVertex
100
AcDb2dVertex
 10
107.7565906831558
 20
804.0145883096317
 30
0.0
  0
VERTEX
  5
4C
330
47
100
AcDbEntity
  8
Layer 1
 62
    40
370
    13
100
AcDbVertex
100
AcDb2dVertex
 10
107.7565906831558
 20
821.2871539535381
 30
0.0
  0
VERTEX
  5
4D
330
47
100
AcDbEntity
  8
Layer 1
 62
    40
370
    13
100
AcDbVertex
100
AcDb2dVertex
 10
102.6275480365828
 20
821.2871539535381
 30
0.0
  0
VERTEX
  5
4E
330
47
100
AcDbEntity
  8
Layer 1
 62
    40
370
    13
100
AcDbVertex
100
AcDb2dVertex
 10
102.6275480365828
 20
792.893396802363
 30
0.0
  0
VERTEX
  5
4F
330
47
100
AcDbEntity
  8
Layer 1
 62
    40
370
    13
100
AcDbVertex
100
AcDb2dVertex
 10
107.7565906831558
 20
792.893396802363
 30
0.0
  0
VERTEX
  5
50
330
47
100
AcDbEntity
  8
Layer 1
 62
    40
370
    13
100
AcDbVertex
100
AcDb2dVertex
 10
107.7565906831558
 20
802.9941555815229
 30
0.0
  0
VERTEX
  5
51
330
47
100
AcDbEntity
  8
Layer 1
 62
    40
370
    13
100
AcDbVertex
100
AcDb2dVertex
 10
115.3474824839075
 20
792.893396802363
 30
0.0
  0
VERTEX
  5
52
330
47
100
AcDbEntity
  8
Layer 1
 62
    40
370
    13
100
AcDbVertex
100
AcDb2dVertex
 10
121.4902518264425
 20
792.893396802363
 30
0.0
  0
VERTEX
  5
53
330
47
100
AcDbEntity
  8
Layer 1
 62
    40
370
    13
100
AcDbVertex
100
AcDb2dVertex
 10
112.6218700492173
 20
803.8812798540249
 30
0.0
  0
VERTEX
  5
54
330
47
100
AcDbEntity
  8
Layer 1
 62
    40
370
    13
100
AcDbVertex
100
AcDb2dVertex
 10
120.5551975337298
 20
814.1594576340824
 30
0.0
  0
SEQEND
  5
55
330
47
100
AcDbEntity
  8
Layer 1
 62
    40
370
    13
  0
SPLINE
  5
56
330
41
100
AcDbEntity
  8
Layer 1
 62
    40
370
    13
100
AcDbSpline
210
0.0
220
0.0
230
1.0
 70
    11
 71
     3
 72
    17
 73
    13
 74
     0
 42
0.0000000001
 43
0.0000000001
 12
1.0
 22
0.0
 32
0.0
 13
1.0
 23
0.0
 33
0.0
 40
0.0
 40
0.0
 40
0.0
 40
0.0
 40
1.0
 40
1.0
 40
1.0
 40
2.0
 40
2.0
 40
2.0
 40
3.0
 40
3.0
 40
3.0
 40
4.0
 40
4.0
 40
4.0
 40
4.0
 10
124.2648305343213
 20
821.7033763927963
 30
0.0
 10
123.0573447302604
 20
821.7033763927963
 30
0.0
 10
122.0494129129569
 20
820.7500646991798
 30
0.0
 10
122.0494129129569
 20
819.487006094864
 30
0.0
 10
122.0494129129569
 20
818.2229948139623
 30
0.0
 10
123.0573447302604
 20
817.2696831203458
 30
0.0
 10
124.2648305343213
 20
817.2696831203458
 30
0.0
 10
125.4674259319614
 20
817.2696831203458
 30
0.0
 10
126.4831061854069
 20
818.2229948139623
 30
0.0
 10
126.4831061854069
 20
819.487006094864
 30
0.0
 10
126.4831061854069
 20
820.7500646991798
 30
0.0
 10
125.4674259319614
 20
821.7033763927963
 30
0.0
 10
124.2648305343213
 20
821.7033763927963
 30
0.0
  0
SPLINE
  5
57
330
41
100
AcDbEntity
  8
Layer 1
 62
    40
370
    13
100
AcDbSpline
210
0.0
220
0.0
230
1.0
 70
    11
 71
     3
 72
    17
 73
    13
 74
     0
 42
0.0000000001
 43
0.0000000001
 12
1.0
 22
0.0
 32
0.0
 13
1.0
 23
0.0
 33
0.0
 40
0.0
 40
0.0
 40
0.0
 40
0.0
 40
1.0
 40
1.0
 40
1.0
 40
2.0
 40
2.0
 40
2.0
 40
3.0
 40
3.0
 40
3.0
 40
4.0
 40
4.0
 40
4.0
 40
4.0
 10
124.2648305343213
 20
817.5928945266659
 30
0.0
 10
123.2471814159481
 20
817.5928945266659
 30
0.0
 10
122.4425507799435
 20
818.413847687997
 30
0.0
 10
122.4425507799435
 20
819.487006094864
 30
0.0
 10
122.4425507799435
 20
820.5582591485693
 30
0.0
 10
123.2471814159481
 20
821.3821338514099
 30
0.0
 10
124.2648305343213
 20
821.3821338514099
 30
0.0
 10
125.2794945994214
 20
821.3821338514099
 30
0.0
 10
126.0899048066512
 20
820.5582591485693
 30
0.0
 10
126.0899048066512
 20
819.487006094864
 30
0.0
 10
126.0899048066512
 20
818.413847687997
 30
0.0
 10
125.2794945994214
 20
817.5928945266659
 30
0.0
 10
124.2648305343213
 20
817.5928945266659
 30
0.0
  0
SPLINE
  5
58
330
41
100
AcDbEntity
  8
Layer 1
 62
    40
370
    13
100
AcDbSpline
210
0.0
220
0.0
230
1.0
 70
    11
 71
     3
 72
    35
 73
    31
 74
     0
 42
0.0000000001
 43
0.0000000001
 12
1.0
 22
0.0
 32
0.0
 13
1.0
 23
0.0
 33
0.0
 40
0.0
 40
0.0
 40
0.0
 40
0.0
 40
1.0
 40
1.0
 40
1.0
 40
2.0
 40
2.0
 40
2.0
 40
3.0
 40
3.0
 40
3.0
 40
4.0
 40
4.0
 40
4.0
 40
5.0
 40
5.0
 40
5.0
 40
6.0
 40
6.0
 40
6.0
 40
7.0
 40
7.0
 40
7.0
 40
8.0
 40
8.0
 40
8.0
 40
9.0
 40
9.0
 40
9.0
 40
10.0
 40
10.0
 40
10.0
 40
10.0
 10
124.6177019380321
 20
819.337435872449
 30
0.0
 10
125.0042345807581
 20
819.377702335721
 30
0.0
 10
125.3043912139404
 20
819.5742712692129
 30
0.0
 10
125.3043912139404
 20
820.0480690862998
 30
0.0
 10
125.3043912139404
 20
820.5410474584326
 30
0.0
 10
125.0099506402159
 20
820.7846151030017
 30
0.0
 10
124.39623639002
 20
820.7846151030017
 30
0.0
 10
124.39623639002
 20
820.7846151030017
 30
0.0
 10
123.4198699232677
 20
820.7846151030017
 30
0.0
 10
123.4198699232677
 20
820.7846151030017
 30
0.0
 10
123.4198699232677
 20
820.7846151030017
 30
0.0
 10
123.4198699232677
 20
818.1923186282221
 30
0.0
 10
123.4198699232677
 20
818.1923186282221
 30
0.0
 10
123.4198699232677
 20
818.1923186282221
 30
0.0
 10
123.8140239786037
 20
818.1923186282221
 30
0.0
 10
123.8140239786037
 20
818.1923186282221
 30
0.0
 10
123.8140239786037
 20
818.1923186282221
 30
0.0
 10
123.8140239786037
 20
819.3086650398566
 30
0.0
 10
123.8140239786037
 20
819.3086650398566
 30
0.0
 10
123.8140239786037
 20
819.3086650398566
 30
0.0
 10
124.2350435133776
 20
819.3086650398566
 30
0.0
 10
124.2350435133776
 20
819.3086650398566
 30
0.0
 10
124.2350435133776
 20
819.3086650398566
 30
0.0
 10
124.9399606677726
 20
818.1923186282221
 30
0.0
 10
124.9399606677726
 20
818.1923186282221
 30
0.0
 10
124.9399606677726
 20
818.1923186282221
 30
0.0
 10
125.3619328791223
 20
818.1923186282221
 30
0.0
 10
125.3619328791223
 20
818.1923186282221
 30
0.0
 10
125.3619328791223
 20
818.1923186282221
 30
0.0
 10
124.6177019380321
 20
819.337435872449
 30
0.0
 10
124.6177019380321
 20
819.337435872449
 30
0.0
  0
SPLINE
  5
59
330
41
100
AcDbEntity
  8
Layer 1
 62
    40
370
    13
100
AcDbSpline
210
0.0
220
0.0
230
1.0
 70
    11
 71
     3
 72
    20
 73
    16
 74
     0
 42
0.0000000001
 43
0.0000000001
 12
1.0
 22
0.0
 32
0.0
 13
1.0
 23
0.0
 33
0.0
 40
0.0
 40
0.0
 40
0.0
 40
0.0
 40
1.0
 40
1.0
 40
1.0
 40
2.0
 40
2.0
 40
2.0
 40
3.0
 40
3.0
 40
3.0
 40
4.0
 40
4.0
 40
4.0
 40
5.0
 40
5.0
 40
5.0
 40
5.0
 10
124.2177683114709
 20
819.6280022280953
 30
0.0
 10
124.2177683114709
 20
819.6280022280953
 30
0.0
 10
123.8140239786037
 20
819.6280022280953
 30
0.0
 10
123.8140239786037
 20
819.6280022280953
 30
0.0
 10
123.8140239786037
 20
819.6280022280953
 30
0.0
 10
123.8140239786037
 20
820.4633725616153
 30
0.0
 10
123.8140239786037
 20
820.4633725616153
 30
0.0
 10
123.8140239786037
 20
820.4633725616153
 30
0.0
 10
124.3299936121135
 20
820.4633725616153
 30
0.0
 10
124.3299936121135
 20
820.4633725616153
 30
0.0
 10
124.5995375713209
 20
820.4633725616153
 30
0.0
 10
124.9111898351783
 20
820.4201845568339
 30
0.0
 10
124.9111898351783
 20
820.0653442881979
 30
0.0
 10
124.9111898351783
 20
819.6490881363067
 30
0.0
 10
124.5697505503773
 20
819.6280022280953
 30
0.0
 10
124.2177683114709
 20
819.6280022280953
 30
0.0
  0
POLYLINE
  5
5A
330
41
100
AcDbEntity
  8
Layer 1
 62
    40
370
    13
100
AcDb2dPolyline
 66
     1
 10
0.0
 20
0.0
 30
0.0
  0
VERTEX
  5
5B
330
5A
100
AcDbEntity
  8
Layer 1
 62
    40
370
    13
100
AcDbVertex
100
AcDb2dVertex
 10
36.37613581532992
 20
799.7381666136143
 30
0.0
  0
VERTEX
  5
5C
330
5A
100
AcDbEntity
  8
Layer 1
 62
    40
370
    13
100
AcDbVertex
100
AcDb2dVertex
 10
28.83505816276721
 20
821.2871539535381
 30
0.0
  0
VERTEX
  5
5D
330
5A
100
AcDbEntity
  8
Layer 1
 62
    40
370
    13
100
AcDbVertex
100
AcDb2dVertex
 10
21.49926631241421
 20
821.2871539535381
 30
0.0
  0
VERTEX
  5
5E
330
5A
100
AcDbEntity
  8
Layer 1
 62
    40
370
    13
100
AcDbVertex
100
AcDb2dVertex
 10
21.49926631241421
 20
792.893396802363
 30
0.0
  0
VERTEX
  5
5F
330
5A
100
AcDbEntity
  8
Layer 1
 62
    40
370
    13
100
AcDbVertex
100
AcDb2dVertex
 10
26.75299066949033
 20
792.893396802363
 30
0.0
  0
VERTEX
  5
60
330
5A
100
AcDbEntity
  8
Layer 1
 62
    40
370
    13
100
AcDbVertex
100
AcDb2dVertex
 10
26.75299066949033
 20
814.347438727074
 30
0.0
  0
VERTEX
  5
61
330
5A
100
AcDbEntity
  8
Layer 1
 62
    40
370
    13
100
AcDbVertex
100
AcDb2dVertex
 10
34.26140522606264
 20
792.893396802363
 30
0.0
  0
VERTEX
  5
62
330
5A
100
AcDbEntity
  8
Layer 1
 62
    40
370
    13
100
AcDbVertex
100
AcDb2dVertex
 10
38.4620666855558
 20
792.893396802363
 30
0.0
  0
VERTEX
  5
63
330
5A
100
AcDbEntity
  8
Layer 1
 62
    40
370
    13
100
AcDbVertex
100
AcDb2dVertex
 10
45.95133996544975
 20
814.4184063274303
 30
0.0
  0
VERTEX
  5
64
330
5A
100
AcDbEntity
  8
Layer 1
 62
    40
370
    13
100
AcDbVertex
100
AcDb2dVertex
 10
45.95133996544975
 20
792.893396802363
 30
0.0
  0
VERTEX
  5
65
330
5A
100
AcDbEntity
  8
Layer 1
 62
    40
370
    13
100
AcDbVertex
100
AcDb2dVertex
 10
51.20500578650751
 20
792.893396802363
 30
0.0
  0
VERTEX
  5
66
330
5A
100
AcDbEntity
  8
Layer 1
 62
    40
370
    13
100
AcDbVertex
100
AcDb2dVertex
 10
51.20500578650751
 20
821.2871539535381
 30
0.0
  0
VERTEX
  5
67
330
5A
100
AcDbEntity
  8
Layer 1
 62
    40
370
    13
100
AcDbVertex
100
AcDb2dVertex
 10
43.87015051238459
 20
821.2871539535381
 30
0.0
  0
VERTEX
  5
68
330
5A
100
AcDbEntity
  8
Layer 1
 62
    40
370
    13
100
AcDbVertex
100
AcDb2dVertex
 10
36.37613581532992
 20
799.7381666136143
 30
0.0
  0
SEQEND
  5
69
330
5A
100
AcDbEntity
  8
Layer 1
 62
    40
370
    13
  0
POLYLINE
  5
6A
330
41
100
AcDbEntity
  8
Layer 1
 62
    40
370
    13
100
AcDb2dPolyline
 66
     1
 10
0.0
 20
0.0
 30
0.0
  0
VERTEX
  5
6B
330
6A
100
AcDbEntity
  8
Layer 1
 62
    40
370
    13
100
AcDbVertex
100
AcDb2dVertex
 10
55.69624002107607
 20
816.5992972468831
 30
0.0
  0
VERTEX
  5
6C
330
6A
100
AcDbEntity
  8
Layer 1
 62
    40
370
    13
100
AcDbVertex
100
AcDb2dVertex
 10
60.82335097917477
 20
816.5992972468831
 30
0.0
  0
VERTEX
  5
6D
330
6A
100
AcDbEntity
  8
Layer 1
 62
    40
370
    13
100
AcDbVertex
100
AcDb2dVertex
 10
60.82335097917477
 20
821.2871539535381
 30
0.0
  0
VERTEX
  5
6E
330
6A
100
AcDbEntity
  8
Layer 1
 62
    40
370
    13
100
AcDbVertex
100
AcDb2dVertex
 10
55.69624002107607
 20
821.2871539535381
 30
0.0
  0
VERTEX
  5
6F
330
6A
100
AcDbEntity
  8
Layer 1
 62
    40
370
    13
100
AcDbVertex
100
AcDb2dVertex
 10
55.69624002107607
 20
816.5992972468831
 30
0.0
  0
SEQEND
  5
70
330
6A
100
AcDbEntity
  8
Layer 1
 62
    40
370
    13
  0
POLYLINE
  5
71
330
41
100
AcDbEntity
  8
Layer 1
 62
    40
370
    13
100
AcDb2dPolyline
 66
     1
 10
0.0
 20
0.0
 30
0.0
  0
VERTEX
  5
72
330
71
100
AcDbEntity
  8
Layer 1
 62
    40
370
    13
100
AcDbVertex
100
AcDb2dVertex
 10
55.69624002107607
 20
792.893396802363
 30
0.0
  0
VERTEX
  5
73
330
71
100
AcDbEntity
  8
Layer 1
 62
    40
370
    13
100
AcDbVertex
100
AcDb2dVertex
 10
60.82335097917477
 20
792.893396802363
 30
0.0
  0
VERTEX
  5
74
330
71
100
AcDbEntity
  8
Layer 1
 62
    40
370
    13
100
AcDbVertex
100
AcDb2dVertex
 10
60.82335097917477
 20
814.1594576340824
 30
0.0
  0
VERTEX
  5
75
330
71
100
AcDbEntity
  8
Layer 1
 62
    40
370
    13
100
AcDbVertex
100
AcDb2dVertex
 10
55.69624002107607
 20
814.1594576340824
 30
0.0
  0
VERTEX
  5
76
330
71
100
AcDbEntity
  8
Layer 1
 62
    40
370
    13
100
AcDbVertex
100
AcDb2dVertex
 10
55.69624002107607
 20
792.893396802363
 30
0.0
  0
SEQEND
  5
77
330
71
100
AcDbEntity
  8
Layer 1
 62
    40
370
    13
  0
POLYLINE
  5
78
330
41
100
AcDbEntity
  8
Layer 1
 62
    40
370
    13
100
AcDb2dPolyline
 66
     1
 10
0.0
 20
0.0
 30
0.0
  0
VERTEX
  5
79
330
78
100
AcDbEntity
  8
Layer 1
 62
    40
370
    13
100
AcDbVertex
100
AcDb2dVertex
 10
78.93609135359242
 20
821.2871539535381
 30
0.0
  0
VERTEX
  5
7A
330
78
100
AcDbEntity
  8
Layer 1
 62
    40
370
    13
100
AcDbVertex
100
AcDb2dVertex
 10
63.05123168412419
 20
821.2871539535381
 30
0.0
  0
VERTEX
  5
7B
330
78
100
AcDbEntity
  8
Layer 1
 62
    40
370
    13
100
AcDbVertex
100
AcDb2dVertex
 10
63.05123168412419
 20
816.4093990994296
 30
0.0
  0
VERTEX
  5
7C
330
78
100
AcDbEntity
  8
Layer 1
 62
    40
370
    13
100
AcDbVertex
100
AcDb2dVertex
 10
68.36536520796788
 20
816.4093990994296
 30
0.0
  0
VERTEX
  5
7D
330
78
100
AcDbEntity
  8
Layer 1
 62
    40
370
    13
100
AcDbVertex
100
AcDb2dVertex
 10
68.36536520796788
 20
792.893396802363
 30
0.0
  0
VERTEX
  5
7E
330
78
100
AcDbEntity
  8
Layer 1
 62
    40
370
    13
100
AcDbVertex
100
AcDb2dVertex
 10
73.61908956504656
 20
792.893396802363
 30
0.0
  0
VERTEX
  5
7F
330
78
100
AcDbEntity
  8
Layer 1
 62
    40
370
    13
100
AcDbVertex
100
AcDb2dVertex
 10
73.61908956504656
 20
816.4093990994296
 30
0.0
  0
VERTEX
  5
80
330
78
100
AcDbEntity
  8
Layer 1
 62
    40
370
    13
100
AcDbVertex
100
AcDb2dVertex
 10
78.93609135359242
 20
816.4093990994296
 30
0.0
  0
VERTEX
  5
81
330
78
100
AcDbEntity
  8
Layer 1
 62
    40
370
    13
100
AcDbVertex
100
AcDb2dVertex
 10
78.93609135359242
 20
821.2871539535381
 30
0.0
  0
SEQEND
  5
82
330
78
100
AcDbEntity
  8
Layer 1
 62
    40
370
    13
  0
ENDBLK
  5
44
330
41
100
AcDbEntity
  8
0
100
AcDbBlockEnd
  0
BLOCK
  5
85
330
83
100
AcDbEntity
  8
0
100
AcDbBlockBegin
  2
block 3
 70
     0
 10
0.0
 20
0.0
 30
0.0
  3
block 3
  1

  0
SPLINE
  5
87
330
83
100
AcDbEntity
  8
Layer 1
 62
    40
370
    13
100
AcDbSpline
210
0.0
220
0.0
230
1.0
 70
    11
 71
     3
 72
    26
 73
    22
 74
     0
 42
0.0000000001
 43
0.0000000001
 12
1.0
 22
0.0
 32
0.0
 13
1.0
 23
0.0
 33
0.0
 40
0.0
 40
0.0
 40
0.0
 40
0.0
 40
1.0
 40
1.0
 40
1.0
 40
2.0
 40
2.0
 40
2.0
 40
3.0
 40
3.0
 40
3.0
 40
4.0
 40
4.0
 40
4.0
 40
5.0
 40
5.0
 40
5.0
 40
6.0
 40
6.0
 40
6.0
 40
7.0
 40
7.0
 40
7.0
 40
7.0
 10
32.93718208453717
 20
781.4177087040829
 30
0.0
 10
38.55646670458726
 20
781.4177087040829
 30
0.0
 10
41.80646877183318
 20
778.2477720472377
 30
0.0
 10
41.80646877183318
 20
773.3915598079848
 30
0.0
 10
41.80646877183318
 20
770.2216231511433
 30
0.0
 10
39.71986613740567
 20
768.2134519391518
 30
0.0
 10
38.2754207741828
 20
767.491229257539
 30
0.0
 10
40.04176176699183
 20
766.6889411655252
 30
0.0
 10
42.24764552304641
 20
764.8833844614979
 30
0.0
 10
42.24764552304641
 20
761.0712905334444
 30
0.0
 10
42.24764552304641
 20
755.7314178558302
 30
0.0
 10
38.55646670458726
 20
752.8425271293818
 30
0.0
 10
33.45842424615093
 20
752.8425271293818
 30
0.0
 10
33.45842424615093
 20
752.8425271293818
 30
0.0
 10
21.49926631241421
 20
752.8425271293818
 30
0.0
 10
21.49926631241421
 20
752.8425271293818
 30
0.0
 10
21.49926631241421
 20
752.8425271293818
 30
0.0
 10
21.49926631241421
 20
781.4177087040829
 30
0.0
 10
21.49926631241421
 20
781.4177087040829
 30
0.0
 10
21.49926631241421
 20
781.4177087040829
 30
0.0
 10
32.93718208453717
 20
781.4177087040829
 30
0.0
 10
32.93718208453717
 20
781.4177087040829
 30
0.0
  0
SPLINE
  5
88
330
83
100
AcDbEntity
  8
Layer 1
 62
    40
370
    13
100
AcDbSpline
210
0.0
220
0.0
230
1.0
 70
    11
 71
     3
 72
    20
 73
    16
 74
     0
 42
0.0000000001
 43
0.0000000001
 12
1.0
 22
0.0
 32
0.0
 13
1.0
 23
0.0
 33
0.0
 40
0.0
 40
0.0
 40
0.0
 40
0.0
 40
1.0
 40
1.0
 40
1.0
 40
2.0
 40
2.0
 40
2.0
 40
3.0
 40
3.0
 40
3.0
 40
4.0
 40
4.0
 40
4.0
 40
5.0
 40
5.0
 40
5.0
 40
5.0
 10
27.07770123327362
 20
776.4422153432108
 30
0.0
 10
27.07770123327362
 20
776.4422153432108
 30
0.0
 10
27.07770123327362
 20
769.8196621111521
 30
0.0
 10
27.07770123327362
 20
769.8196621111521
 30
0.0
 10
27.07770123327362
 20
769.8196621111521
 30
0.0
 10
32.57607074373249
 20
769.8196621111521
 30
0.0
 10
32.57607074373249
 20
769.8196621111521
 30
0.0
 10
34.94371930855999
 20
769.8196621111521
 30
0.0
 10
36.22803385097378
 20
771.1431923647834
 30
0.0
 10
36.22803385097378
 20
773.151363576771
 30
0.0
 10
36.22803385097378
 20
775.1170511016109
 30
0.0
 10
34.94371930855999
 20
776.4422153432108
 30
0.0
 10
32.57607074373249
 20
776.4422153432108
 30
0.0
 10
32.57607074373249
 20
776.4422153432108
 30
0.0
 10
27.07770123327362
 20
776.4422153432108
 30
0.0
 10
27.07770123327362
 20
776.4422153432108
 30
0.0
  0
SPLINE
  5
89
330
83
100
AcDbEntity
  8
Layer 1
 62
    40
370
    13
100
AcDbSpline
210
0.0
220
0.0
230
1.0
 70
    11
 71
     3
 72
    20
 73
    16
 74
     0
 42
0.0000000001
 43
0.0000000001
 12
1.0
 22
0.0
 32
0.0
 13
1.0
 23
0.0
 33
0.0
 40
0.0
 40
0.0
 40
0.0
 40
0.0
 40
1.0
 40
1.0
 40
1.0
 40
2.0
 40
2.0
 40
2.0
 40
3.0
 40
3.0
 40
3.0
 40
4.0
 40
4.0
 40
4.0
 40
5.0
 40
5.0
 40
5.0
 40
5.0
 10
27.07770123327362
 20
764.8425347623114
 30
0.0
 10
27.07770123327362
 20
764.8425347623114
 30
0.0
 10
27.07770123327362
 20
757.8196544782228
 30
0.0
 10
27.07770123327362
 20
757.8196544782228
 30
0.0
 10
27.07770123327362
 20
757.8196544782228
 30
0.0
 10
32.93718208453717
 20
757.8196544782228
 30
0.0
 10
32.93718208453717
 20
757.8196544782228
 30
0.0
 10
35.42574575895556
 20
757.8196544782228
 30
0.0
 10
36.66921060218668
 20
759.345799239818
 30
0.0
 10
36.66921060218668
 20
761.3523364638444
 30
0.0
 10
36.66921060218668
 20
763.3163900007158
 30
0.0
 10
35.42574575895556
 20
764.8425347623114
 30
0.0
 10
32.93718208453717
 20
764.8425347623114
 30
0.0
 10
32.93718208453717
 20
764.8425347623114
 30
0.0
 10
27.07770123327362
 20
764.8425347623114
 30
0.0
 10
27.07770123327362
 20
764.8425347623114
 30
0.0
  0
SPLINE
  5
8A
330
83
100
AcDbEntity
  8
Layer 1
 62
    40
370
    13
100
AcDbSpline
210
0.0
220
0.0
230
1.0
 70
    11
 71
     3
 72
    29
 73
    25
 74
     0
 42
0.0000000001
 43
0.0000000001
 12
1.0
 22
0.0
 32
0.0
 13
1.0
 23
0.0
 33
0.0
 40
0.0
 40
0.0
 40
0.0
 40
0.0
 40
1.0
 40
1.0
 40
1.0
 40
2.0
 40
2.0
 40
2.0
 40
3.0
 40
3.0
 40
3.0
 40
4.0
 40
4.0
 40
4.0
 40
5.0
 40
5.0
 40
5.0
 40
6.0
 40
6.0
 40
6.0
 40
7.0
 40
7.0
 40
7.0
 40
8.0
 40
8.0
 40
8.0
 40
8.0
 10
64.97968612615728
 20
778.6497330872328
 30
0.0
 10
67.82936114138418
 20
775.8392737832202
 30
0.0
 10
67.86857685260686
 20
772.5892717159743
 30
0.0
 10
67.86857685260686
 20
767.1301179167342
 30
0.0
 10
67.86857685260686
 20
761.6725981054664
 30
0.0
 10
67.82936114138418
 20
758.4209620502412
 30
0.0
 10
64.97968612615728
 20
755.6105027462393
 30
0.0
 10
63.01236461334847
 20
753.6856649205862
 30
0.0
 10
60.60386634933509
 20
752.6006969101996
 30
0.0
 10
57.31301458289848
 20
752.6006969101996
 30
0.0
 10
54.02216281646572
 20
752.6006969101996
 30
0.0
 10
51.61366455244787
 20
753.6856649205862
 30
0.0
 10
49.64797702760707
 20
755.6105027462393
 30
0.0
 10
46.79830201238465
 20
758.4601777614662
 30
0.0
 10
46.75745231319781
 20
761.6725981054664
 30
0.0
 10
46.75745231319781
 20
767.1301179167342
 30
0.0
 10
46.75745231319781
 20
772.5892717159743
 30
0.0
 10
46.79830201238465
 20
775.8000580720023
 30
0.0
 10
49.64797702760707
 20
778.6497330872328
 30
0.0
 10
51.61366455244787
 20
780.5762049008513
 30
0.0
 10
54.02216281646572
 20
781.6595389232652
 30
0.0
 10
57.31301458289848
 20
781.6595389232652
 30
0.0
 10
60.60386634933509
 20
781.6595389232652
 30
0.0
 10
63.01236461334847
 20
780.5762049008513
 30
0.0
 10
64.97968612615728
 20
778.6497330872328
 30
0.0
  0
SPLINE
  5
8B
330
83
100
AcDbEntity
  8
Layer 1
 62
    40
370
    13
100
AcDbSpline
210
0.0
220
0.0
230
1.0
 70
    11
 71
     3
 72
    29
 73
    25
 74
     0
 42
0.0000000001
 43
0.0000000001
 12
1.0
 22
0.0
 32
0.0
 13
1.0
 23
0.0
 33
0.0
 40
0.0
 40
0.0
 40
0.0
 40
0.0
 40
1.0
 40
1.0
 40
1.0
 40
2.0
 40
2.0
 40
2.0
 40
3.0
 40
3.0
 40
3.0
 40
4.0
 40
4.0
 40
4.0
 40
5.0
 40
5.0
 40
5.0
 40
6.0
 40
6.0
 40
6.0
 40
7.0
 40
7.0
 40
7.0
 40
8.0
 40
8.0
 40
8.0
 40
8.0
 10
53.74111688606158
 20
775.1579008007942
 30
0.0
 10
52.65778286364755
 20
773.9536516687887
 30
0.0
 10
52.3358872340617
 20
772.5892717159743
 30
0.0
 10
52.3358872340617
 20
767.1301179167342
 30
0.0
 10
52.3358872340617
 20
761.6725981054664
 30
0.0
 10
52.65778286364755
 20
760.3490678518313
 30
0.0
 10
53.74111688606158
 20
759.143184731854
 30
0.0
 10
54.5434049780798
 20
758.221615518214
 30
0.0
 10
55.78850380927059
 20
757.5778242590407
 30
0.0
 10
57.31301458289848
 20
757.5778242590407
 30
0.0
 10
58.83915934449342
 20
757.5778242590407
 30
0.0
 10
60.0826241877207
 20
758.221615518214
 30
0.0
 10
60.88491227973475
 20
759.143184731854
 30
0.0
 10
61.96824630215294
 20
760.3490678518313
 30
0.0
 10
62.29014193173719
 20
761.6725981054664
 30
0.0
 10
62.29014193173719
 20
767.1301179167342
 30
0.0
 10
62.29014193173719
 20
772.5892717159743
 30
0.0
 10
61.96824630215294
 20
773.9536516687887
 30
0.0
 10
60.88491227973475
 20
775.1579008007942
 30
0.0
 10
60.0826241877207
 20
776.0811040024058
 30
0.0
 10
58.83915934449342
 20
776.6824115744247
 30
0.0
 10
57.31301458289848
 20
776.6824115744247
 30
0.0
 10
55.78850380927059
 20
776.6824115744247
 30
0.0
 10
54.5434049780798
 20
776.0811040024058
 30
0.0
 10
53.74111688606158
 20
775.1579008007942
 30
0.0
  0
POLYLINE
  5
8C
330
83
100
AcDbEntity
  8
Layer 1
 62
    40
370
    13
100
AcDb2dPolyline
 66
     1
 10
0.0
 20
0.0
 30
0.0
  0
VERTEX
  5
8D
330
8C
100
AcDbEntity
  8
Layer 1
 62
    40
370
    13
100
AcDbVertex
100
AcDb2dVertex
 10
97.70356315020437
 20
752.8425271293818
 30
0.0
  0
VERTEX
  5
8E
330
8C
100
AcDbEntity
  8
Layer 1
 62
    40
370
    13
100
AcDbVertex
100
AcDb2dVertex
 10
93.00748173176372
 20
752.8425271293818
 30
0.0
  0
VERTEX
  5
8F
330
8C
100
AcDbEntity
  8
Layer 1
 62
    40
370
    13
100
AcDbVertex
100
AcDb2dVertex
 10
87.74930845252247
 20
770.1399237527702
 30
0.0
  0
VERTEX
  5
90
330
8C
100
AcDbEntity
  8
Layer 1
 62
    40
370
    13
100
AcDbVertex
100
AcDb2dVertex
 10
82.53198487246775
 20
752.8425271293818
 30
0.0
  0
VERTEX
  5
91
330
8C
100
AcDbEntity
  8
Layer 1
 62
    40
370
    13
100
AcDbVertex
100
AcDb2dVertex
 10
77.87675315321296
 20
752.8425271293818
 30
0.0
  0
VERTEX
  5
92
330
8C
100
AcDbEntity
  8
Layer 1
 62
    40
370
    13
100
AcDbVertex
100
AcDb2dVertex
 10
70.21008160995417
 20
781.4177087040829
 30
0.0
  0
VERTEX
  5
93
330
8C
100
AcDbEntity
  8
Layer 1
 62
    40
370
    13
100
AcDbVertex
100
AcDb2dVertex
 10
76.03034674999729
 20
781.4177087040829
 30
0.0
  0
VERTEX
  5
94
330
8C
100
AcDbEntity
  8
Layer 1
 62
    40
370
    13
100
AcDbVertex
100
AcDb2dVertex
 10
80.44538223804055
 20
763.4373051103067
 30
0.0
  0
VERTEX
  5
95
330
8C
100
AcDbEntity
  8
Layer 1
 62
    40
370
    13
100
AcDbVertex
100
AcDb2dVertex
 10
85.70192152931153
 20
781.4177087040829
 30
0.0
  0
VERTEX
  5
96
330
8C
100
AcDbEntity
  8
Layer 1
 62
    40
370
    13
100
AcDbVertex
100
AcDb2dVertex
 10
89.83591108695032
 20
781.4177087040829
 30
0.0
  0
VERTEX
  5
97
330
8C
100
AcDbEntity
  8
Layer 1
 62
    40
370
    13
100
AcDbVertex
100
AcDb2dVertex
 10
95.09408436619573
 20
763.4373051103067
 30
0.0
  0
VERTEX
  5
98
330
8C
100
AcDbEntity
  8
Layer 1
 62
    40
370
    13
100
AcDbVertex
100
AcDb2dVertex
 10
99.50911985423609
 20
781.4177087040829
 30
0.0
  0
VERTEX
  5
99
330
8C
100
AcDbEntity
  8
Layer 1
 62
    40
370
    13
100
AcDbVertex
100
AcDb2dVertex
 10
105.3293849942773
 20
781.4177087040829
 30
0.0
  0
VERTEX
  5
9A
330
8C
100
AcDbEntity
  8
Layer 1
 62
    40
370
    13
100
AcDbVertex
100
AcDb2dVertex
 10
97.70356315020437
 20
752.8425271293818
 30
0.0
  0
SEQEND
  5
9B
330
8C
100
AcDbEntity
  8
Layer 1
 62
    40
370
    13
  0
POLYLINE
  5
9C
330
83
100
AcDbEntity
  8
Layer 1
 62
    40
370
    13
100
AcDb2dPolyline
 66
     1
 10
0.0
 20
0.0
 30
0.0
  0
VERTEX
  5
9D
330
9C
100
AcDbEntity
  8
Layer 1
 62
    40
370
    13
100
AcDbVertex
100
AcDb2dVertex
 10
134.80652792701
 20
752.8425271293818
 30
0.0
  0
VERTEX
  5
9E
330
9C
100
AcDbEntity
  8
Layer 1
 62
    40
370
    13
100
AcDbVertex
100
AcDb2dVertex
 10
129.2280930061506
 20
752.8425271293818
 30
0.0
  0
VERTEX
  5
9F
330
9C
100
AcDbEntity
  8
Layer 1
 62
    40
370
    13
100
AcDbVertex
100
AcDb2dVertex
 10
129.2280930061506
 20
769.4585507703474
 30
0.0
  0
VERTEX
  5
A0
330
9C
100
AcDbEntity
  8
Layer 1
 62
    40
370
    13
100
AcDbVertex
100
AcDb2dVertex
 10
123.7705731948776
 20
759.3033155526703
 30
0.0
  0
VERTEX
  5
A1
330
9C
100
AcDbEntity
  8
Layer 1
 62
    40
370
    13
100
AcDbVertex
100
AcDb2dVertex
 10
119.9976949780457
 20
759.3033155526703
 30
0.0
  0
VERTEX
  5
A2
330
9C
100
AcDbEntity
  8
Layer 1
 62
    40
370
    13
100
AcDbVertex
100
AcDb2dVertex
 10
114.4993254675865
 20
769.4585507703474
 30
0.0
  0
VERTEX
  5
A3
330
9C
100
AcDbEntity
  8
Layer 1
 62
    40
370
    13
100
AcDbVertex
100
AcDb2dVertex
 10
114.4993254675865
 20
752.8425271293818
 30
0.0
  0
VERTEX
  5
A4
330
9C
100
AcDbEntity
  8
Layer 1
 62
    40
370
    13
100
AcDbVertex
100
AcDb2dVertex
 10
108.920890546723
 20
752.8425271293818
 30
0.0
  0
VERTEX
  5
A5
330
9C
100
AcDbEntity
  8
Layer 1
 62
    40
370
    13
100
AcDbVertex
100
AcDb2dVertex
 10
108.920890546723
 20
781.4177087040829
 30
0.0
  0
VERTEX
  5
A6
330
9C
100
AcDbEntity
  8
Layer 1
 62
    40
370
    13
100
AcDbVertex
100
AcDb2dVertex
 10
114.4192600571818
 20
781.4177087040829
 30
0.0
  0
VERTEX
  5
A7
330
9C
100
AcDbEntity
  8
Layer 1
 62
    40
370
    13
100
AcDbVertex
100
AcDb2dVertex
 10
121.8833170924777
 20
766.6088757551205
 30
0.0
  0
VERTEX
  5
A8
330
9C
100
AcDbEntity
  8
Layer 1
 62
    40
370
    13
100
AcDbVertex
100
AcDb2dVertex
 10
129.308158416555
 20
781.4177087040829
 30
0.0
  0
VERTEX
  5
A9
330
9C
100
AcDbEntity
  8
Layer 1
 62
    40
370
    13
100
AcDbVertex
100
AcDb2dVertex
 10
134.80652792701
 20
781.4177087040829
 30
0.0
  0
VERTEX
  5
AA
330
9C
100
AcDbEntity
  8
Layer 1
 62
    40
370
    13
100
AcDbVertex
100
AcDb2dVertex
 10
134.80652792701
 20
752.8425271293818
 30
0.0
  0
SEQEND
  5
AB
330
9C
100
AcDbEntity
  8
Layer 1
 62
    40
370
    13
  0
POLYLINE
  5
AC
330
83
100
AcDbEntity
  8
Layer 1
 62
    40
370
    13
100
AcDb2dPolyline
 66
     1
 10
0.0
 20
0.0
 30
0.0
  0
VERTEX
  5
AD
330
AC
100
AcDbEntity
  8
Layer 1
 62
    40
370
    13
100
AcDbVertex
100
AcDb2dVertex
 10
163.5614481781308
 20
752.8425271293818
 30
0.0
  0
VERTEX
  5
AE
330
AC
100
AcDbEntity
  8
Layer 1
 62
    40
370
    13
100
AcDbVertex
100
AcDb2dVertex
 10
157.7019673268672
 20
752.8425271293818
 30
0.0
  0
VERTEX
  5
AF
330
AC
100
AcDbEntity
  8
Layer 1
 62
    40
370
    13
100
AcDbVertex
100
AcDb2dVertex
 10
156.0156917444632
 20
757.8980859006658
 30
0.0
  0
VERTEX
  5
B0
330
AC
100
AcDbEntity
  8
Layer 1
 62
    40
370
    13
100
AcDbVertex
100
AcDb2dVertex
 10
145.9029402139396
 20
757.8980859006658
 30
0.0
  0
VERTEX
  5
B1
330
AC
100
AcDbEntity
  8
Layer 1
 62
    40
370
    13
100
AcDbVertex
100
AcDb2dVertex
 10
144.1758149323449
 20
752.8425271293818
 30
0.0
  0
VERTEX
  5
B2
330
AC
100
AcDbEntity
  8
Layer 1
 62
    40
370
    13
100
AcDbVertex
100
AcDb2dVertex
 10
138.316334081083
 20
752.8425271293818
 30
0.0
  0
VERTEX
  5
B3
330
AC
100
AcDbEntity
  8
Layer 1
 62
    40
370
    13
100
AcDbVertex
100
AcDb2dVertex
 10
148.7509812411988
 20
781.4177087040829
 30
0.0
  0
VERTEX
  5
B4
330
AC
100
AcDbEntity
  8
Layer 1
 62
    40
370
    13
100
AcDbVertex
100
AcDb2dVertex
 10
153.1268010180172
 20
781.4177087040829
 30
0.0
  0
VERTEX
  5
B5
330
AC
100
AcDbEntity
  8
Layer 1
 62
    40
370
    13
100
AcDbVertex
100
AcDb2dVertex
 10
163.5614481781308
 20
752.8425271293818
 30
0.0
  0
SEQEND
  5
B6
330
AC
100
AcDbEntity
  8
Layer 1
 62
    40
370
    13
  0
POLYLINE
  5
B7
330
83
100
AcDbEntity
  8
Layer 1
 62
    40
370
    13
100
AcDb2dPolyline
 66
     1
 10
0.0
 20
0.0
 30
0.0
  0
VERTEX
  5
B8
330
B7
100
AcDbEntity
  8
Layer 1
 62
    40
370
    13
100
AcDbVertex
100
AcDb2dVertex
 10
147.4274509875627
 20
762.5941673191027
 30
0.0
  0
VERTEX
  5
B9
330
B7
100
AcDbEntity
  8
Layer 1
 62
    40
370
    13
100
AcDbVertex
100
AcDb2dVertex
 10
154.4503312716495
 20
762.5941673191027
 30
0.0
  0
VERTEX
  5
BA
330
B7
100
AcDbEntity
  8
Layer 1
 62
    40
370
    13
100
AcDbVertex
100
AcDb2dVertex
 10
150.9584989852176
 20
772.950383056779
 30
0.0
  0
VERTEX
  5
BB
330
B7
100
AcDbEntity
  8
Layer 1
 62
    40
370
    13
100
AcDbVertex
100
AcDb2dVertex
 10
147.4274509875627
 20
762.5941673191027
 30
0.0
  0
SEQEND
  5
BC
330
B7
100
AcDbEntity
  8
Layer 1
 62
    40
370
    13
  0
SPLINE
  5
BD
330
83
100
AcDbEntity
  8
Layer 1
 62
    40
370
    13
100
AcDbSpline
210
0.0
220
0.0
230
1.0
 70
    11
 71
     3
 72
    47
 73
    43
 74
     0
 42
0.0000000001
 43
0.0000000001
 12
1.0
 22
0.0
 32
0.0
 13
1.0
 23
0.0
 33
0.0
 40
0.0
 40
0.0
 40
0.0
 40
0.0
 40
1.0
 40
1.0
 40
1.0
 40
2.0
 40
2.0
 40
2.0
 40
3.0
 40
3.0
 40
3.0
 40
4.0
 40
4.0
 40
4.0
 40
5.0
 40
5.0
 40
5.0
 40
6.0
 40
6.0
 40
6.0
 40
7.0
 40
7.0
 40
7.0
 40
8.0
 40
8.0
 40
8.0
 40
9.0
 40
9.0
 40
9.0
 40
10.0
 40
10.0
 40
10.0
 40
11.0
 40
11.0
 40
11.0
 40
12.0
 40
12.0
 40
12.0
 40
13.0
 40
13.0
 40
13.0
 40
14.0
 40
14.0
 40
14.0
 40
14.0
 10
186.7330315444872
 20
772.6284874271925
 30
0.0
 10
186.7330315444872
 20
772.6284874271925
 30
0.0
 10
181.0745312132231
 20
772.6284874271925
 30
0.0
 10
181.0745312132231
 20
772.6284874271925
 30
0.0
 10
180.512439352419
 20
774.9569202808018
 30
0.0
 10
179.0271442900099
 20
776.6824115744247
 30
0.0
 10
176.2575346851874
 20
776.6824115744247
 30
0.0
 10
174.7330239115601
 20
776.6824115744247
 30
0.0
 10
173.4879250803645
 20
776.1203197136241
 30
0.0
 10
172.6856369883466
 20
775.1971165120156
 30
0.0
 10
171.6415186771508
 20
773.9928673800065
 30
0.0
 10
171.2804073363464
 20
772.5892717159743
 30
0.0
 10
171.2804073363464
 20
767.1301179167342
 30
0.0
 10
171.2804073363464
 20
761.6725981054664
 30
0.0
 10
171.6415186771508
 20
760.267368453462
 30
0.0
 10
172.6856369883466
 20
759.064753309418
 30
0.0
 10
173.4879250803645
 20
758.1399161198409
 30
0.0
 10
174.7330239115601
 20
757.5778242590407
 30
0.0
 10
176.2575346851874
 20
757.5778242590407
 30
0.0
 10
179.0271442900099
 20
757.5778242590407
 30
0.0
 10
180.512439352419
 20
759.3033155526703
 30
0.0
 10
181.0745312132231
 20
761.6333823942447
 30
0.0
 10
181.0745312132231
 20
761.6333823942447
 30
0.0
 10
186.7330315444872
 20
761.6333823942447
 30
0.0
 10
186.7330315444872
 20
761.6333823942447
 30
0.0
 10
185.7297629324737
 20
755.6529864333909
 30
0.0
 10
181.5957733748372
 20
752.6006969101996
 30
0.0
 10
176.2575346851874
 20
752.6006969101996
 30
0.0
 10
172.9666829187511
 20
752.6006969101996
 30
0.0
 10
170.5581846547371
 20
753.6856649205862
 30
0.0
 10
168.5924971298963
 20
755.6105027462393
 30
0.0
 10
165.7428221146732
 20
758.4601777614662
 30
0.0
 10
165.701972415487
 20
761.6725981054664
 30
0.0
 10
165.701972415487
 20
767.1301179167342
 30
0.0
 10
165.701972415487
 20
772.5892717159743
 30
0.0
 10
165.7428221146732
 20
775.8000580720023
 30
0.0
 10
168.5924971298963
 20
778.6497330872328
 30
0.0
 10
170.5581846547371
 20
780.5762049008513
 30
0.0
 10
172.9666829187511
 20
781.6595389232652
 30
0.0
 10
176.2575346851874
 20
781.6595389232652
 30
0.0
 10
181.5957733748372
 20
781.6595389232652
 30
0.0
 10
185.7297629324737
 20
778.6088833880463
 30
0.0
 10
186.7330315444872
 20
772.6284874271925
 30
0.0
  0
SPLINE
  5
BE
330
83
100
AcDbEntity
  8
Layer 1
 62
    40
370
    13
100
AcDbSpline
210
0.0
220
0.0
230
1.0
 70
    11
 71
     3
 72
    17
 73
    13
 74
     0
 42
0.0000000001
 43
0.0000000001
 12
1.0
 22
0.0
 32
0.0
 13
1.0
 23
0.0
 33
0.0
 40
0.0
 40
0.0
 40
0.0
 40
0.0
 40
1.0
 40
1.0
 40
1.0
 40
2.0
 40
2.0
 40
2.0
 40
3.0
 40
3.0
 40
3.0
 40
4.0
 40
4.0
 40
4.0
 40
4.0
 10
188.9439371540986
 20
779.7264262141342
 30
0.0
 10
188.9439371540986
 20
780.9601349686644
 30
0.0
 10
189.9154836106307
 20
781.959097258646
 30
0.0
 10
191.1139331750788
 20
781.959097258646
 30
0.0
 10
192.3123827395262
 20
781.959097258646
 30
0.0
 10
193.2839291960628
 20
780.9601349686644
 30
0.0
 10
193.2839291960628
 20
779.7264262141342
 30
0.0
 10
193.2839291960628
 20
778.4933623674807
 30
0.0
 10
192.3123827395262
 20
777.4944000774849
 30
0.0
 10
191.1139331750788
 20
777.4944000774849
 30
0.0
 10
189.9154836106307
 20
777.4944000774849
 30
0.0
 10
188.9439371540986
 20
778.4933623674807
 30
0.0
 10
188.9439371540986
 20
779.7264262141342
 30
0.0
  0
SPLINE
  5
BF
330
83
100
AcDbEntity
  8
Layer 1
 62
    40
370
    13
100
AcDbSpline
210
0.0
220
0.0
230
1.0
 70
    11
 71
     3
 72
    17
 73
    13
 74
     0
 42
0.0000000001
 43
0.0000000001
 12
1.0
 22
0.0
 32
0.0
 13
1.0
 23
0.0
 33
0.0
 40
0.0
 40
0.0
 40
0.0
 40
0.0
 40
1.0
 40
1.0
 40
1.0
 40
2.0
 40
2.0
 40
2.0
 40
3.0
 40
3.0
 40
3.0
 40
4.0
 40
4.0
 40
4.0
 40
4.0
 10
192.7686961720188
 20
779.7264262141342
 30
0.0
 10
192.7686961720188
 20
780.7195843333039
 30
0.0
 10
192.0491249900187
 20
781.4592936597186
 30
0.0
 10
191.1139331750788
 20
781.4592936597186
 30
0.0
 10
190.1787413601424
 20
781.4592936597186
 30
0.0
 10
189.4591701781464
 20
780.7195843333039
 30
0.0
 10
189.4591701781464
 20
779.7264262141342
 30
0.0
 10
189.4591701781464
 20
778.7339130028375
 30
0.0
 10
190.1787413601424
 20
777.9935587685568
 30
0.0
 10
191.1139331750788
 20
777.9935587685568
 30
0.0
 10
192.0491249900187
 20
777.9935587685568
 30
0.0
 10
192.7686961720188
 20
778.7339130028375
 30
0.0
 10
192.7686961720188
 20
779.7264262141342
 30
0.0
  0
SPLINE
  5
C0
330
83
100
AcDbEntity
  8
Layer 1
 62
    40
370
    13
100
AcDbSpline
210
0.0
220
0.0
230
1.0
 70
    11
 71
     3
 72
    35
 73
    31
 74
     0
 42
0.0000000001
 43
0.0000000001
 12
1.0
 22
0.0
 32
0.0
 13
1.0
 23
0.0
 33
0.0
 40
0.0
 40
0.0
 40
0.0
 40
0.0
 40
1.0
 40
1.0
 40
1.0
 40
2.0
 40
2.0
 40
2.0
 40
3.0
 40
3.0
 40
3.0
 40
4.0
 40
4.0
 40
4.0
 40
5.0
 40
5.0
 40
5.0
 40
6.0
 40
6.0
 40
6.0
 40
7.0
 40
7.0
 40
7.0
 40
8.0
 40
8.0
 40
8.0
 40
9.0
 40
9.0
 40
9.0
 40
10.0
 40
10.0
 40
10.0
 40
10.0
 10
190.3229063182083
 20
780.9169261413895
 30
0.0
 10
190.3229063182083
 20
780.9169261413895
 30
0.0
 10
191.263112566467
 20
780.9169261413895
 30
0.0
 10
191.263112566467
 20
780.9169261413895
 30
0.0
 10
191.7307084739349
 20
780.9169261413895
 30
0.0
 10
192.0303208650512
 20
780.5654513524718
 30
0.0
 10
192.0303208650512
 20
780.1707677362828
 30
0.0
 10
192.0303208650512
 20
779.8437994463943
 30
0.0
 10
191.8272363154257
 20
779.63420438878
 30
0.0
 10
191.6053476408365
 20
779.5413376555596
 30
0.0
 10
191.6053476408365
 20
779.5413376555596
 30
0.0
 10
192.0904940649373
 20
778.542375365578
 30
0.0
 10
192.0904940649373
 20
778.542375365578
 30
0.0
 10
192.0904940649373
 20
778.542375365578
 30
0.0
 10
191.5038053660234
 20
778.542375365578
 30
0.0
 10
191.5038053660234
 20
778.542375365578
 30
0.0
 10
191.5038053660234
 20
778.542375365578
 30
0.0
 10
191.0838465751396
 20
779.4613690797413
 30
0.0
 10
191.0838465751396
 20
779.4613690797413
 30
0.0
 10
191.0838465751396
 20
779.4613690797413
 30
0.0
 10
190.8381393422564
 20
779.4613690797413
 30
0.0
 10
190.8381393422564
 20
779.4613690797413
 30
0.0
 10
190.8381393422564
 20
779.4613690797413
 30
0.0
 10
190.8381393422564
 20
778.542375365578
 30
0.0
 10
190.8381393422564
 20
778.542375365578
 30
0.0
 10
190.8381393422564
 20
778.542375365578
 30
0.0
 10
190.3229063182083
 20
778.542375365578
 30
0.0
 10
190.3229063182083
 20
778.542375365578
 30
0.0
 10
190.3229063182083
 20
778.542375365578
 30
0.0
 10
190.3229063182083
 20
780.9169261413895
 30
0.0
 10
190.3229063182083
 20
780.9169261413895
 30
0.0
  0
SPLINE
  5
C1
330
83
100
AcDbEntity
  8
Layer 1
 62
    40
370
    13
100
AcDbSpline
210
0.0
220
0.0
230
1.0
 70
    11
 71
     3
 72
    20
 73
    16
 74
     0
 42
0.0000000001
 43
0.0000000001
 12
1.0
 22
0.0
 32
0.0
 13
1.0
 23
0.0
 33
0.0
 40
0.0
 40
0.0
 40
0.0
 40
0.0
 40
1.0
 40
1.0
 40
1.0
 40
2.0
 40
2.0
 40
2.0
 40
3.0
 40
3.0
 40
3.0
 40
4.0
 40
4.0
 40
4.0
 40
5.0
 40
5.0
 40
5.0
 40
5.0
 10
191.1979249332585
 20
779.8625017746224
 30
0.0
 10
191.3897270079002
 20
779.8625017746224
 30
0.0
 10
191.5150878410034
 20
780.0043815059221
 30
0.0
 10
191.5150878410034
 20
780.1707677362828
 30
0.0
 10
191.5150878410034
 20
780.3371539666332
 30
0.0
 10
191.3897270079002
 20
780.4790336979438
 30
0.0
 10
191.1979249332585
 20
780.4790336979438
 30
0.0
 10
191.1979249332585
 20
780.4790336979438
 30
0.0
 10
190.8381393422564
 20
780.4790336979438
 30
0.0
 10
190.8381393422564
 20
780.4790336979438
 30
0.0
 10
190.8381393422564
 20
780.4790336979438
 30
0.0
 10
190.8381393422564
 20
779.8625017746224
 30
0.0
 10
190.8381393422564
 20
779.8625017746224
 30
0.0
 10
190.8381393422564
 20
779.8625017746224
 30
0.0
 10
191.1979249332585
 20
779.8625017746224
 30
0.0
 10
191.1979249332585
 20
779.8625017746224
 30
0.0
  0
ENDBLK
  5
86
330
83
100
AcDbEntity
  8
0
100
AcDbBlockEnd
  0
BLOCK
  5
C4
330
C2
100
AcDbEntity
  8
0
100
AcDbBlockBegin
  2
block 4
 70
     0
 10
0.0
 20
0.0
 30
0.0
  3
block 4
  1

  0
SPLINE
  5
C6
330
C2
100
AcDbEntity
  8
Layer 1
 62
    40
370
    13
100
AcDbSpline
210
0.0
220
0.0
230
1.0
 70
    11
 71
     3
 72
    65
 73
    61
 74
     0
 42
0.0000000001
 43
0.0000000001
 12
1.0
 22
0.0
 32
0.0
 13
1.0
 23
0.0
 33
0.0
 40
0.0
 40
0.0
 40
0.0
 40
0.0
 40
1.0
 40
1.0
 40
1.0
 40
2.0
 40
2.0
 40
2.0
 40
3.0
 40
3.0
 40
3.0
 40
4.0
 40
4.0
 40
4.0
 40
5.0
 40
5.0
 40
5.0
 40
6.0
 40
6.0
 40
6.0
 40
7.0
 40
7.0
 40
7.0
 40
8.0
 40
8.0
 40
8.0
 40
9.0
 40
9.0
 40
9.0
 40
10.0
 40
10.0
 40
10.0
 40
11.0
 40
11.0
 40
11.0
 40
12.0
 40
12.0
 40
12.0
 40
13.0
 40
13.0
 40
13.0
 40
14.0
 40
14.0
 40
14.0
 40
15.0
 40
15.0
 40
15.0
 40
16.0
 40
16.0
 40
16.0
 40
17.0
 40
17.0
 40
17.0
 40
18.0
 40
18.0
 40
18.0
 40
19.0
 40
19.0
 40
19.0
 40
20.0
 40
20.0
 40
20.0
 40
20.0
 10
34.44845820450313
 20
739.9685355302204
 30
0.0
 10
34.44845820450313
 20
739.9685355302204
 30
0.0
 10
33.06257188006558
 20
738.582649205779
 30
0.0
 10
33.06257188006558
 20
738.582649205779
 30
0.0
 10
31.84704367524057
 20
739.7429261285661
 30
0.0
 10
30.4623084191764
 20
740.3368774104666
 30
0.0
 10
28.369666112006
 20
740.3368774104666
 30
0.0
 10
25.65544688191786
 20
740.3368774104666
 30
0.0
 10
24.10035350623729
 20
738.8381863852035
 30
0.0
 10
24.10035350623729
 20
736.5751859584167
 30
0.0
 10
24.10035350623729
 20
735.5852671552489
 30
0.0
 10
24.38351632667927
 20
734.7657064716911
 30
0.0
 10
25.00509324960085
 20
734.2293086085747
 30
0.0
 10
25.62667017252213
 20
733.6929107454656
 30
0.0
 10
26.58781226629896
 20
733.352194506229
 30
0.0
 10
27.63413341988352
 20
733.1841385233699
 30
0.0
 10
27.63413341988352
 20
733.1841385233699
 30
0.0
 10
29.98116183810016
 20
732.8157966431199
 30
0.0
 10
29.98116183810016
 20
732.8157966431199
 30
0.0
 10
31.84704367524057
 20
732.5326338226779
 30
0.0
 10
32.72300670921
 20
732.1942197201951
 30
0.0
 10
33.62774645257358
 20
731.3746590366409
 30
0.0
 10
34.7028443155513
 20
730.4399915155075
 30
0.0
 10
35.32442123847482
 20
729.0840329688365
 30
0.0
 10
35.32442123847482
 20
727.4149838239538
 30
0.0
 10
35.32442123847482
 20
723.8812039103076
 30
0.0
 10
32.58257636736305
 20
721.7033825433323
 30
0.0
 10
28.369666112006
 20
721.7033825433323
 30
0.0
 10
25.37228406147652
 20
721.7033825433323
 30
0.0
 10
23.36482081411288
 20
722.4676919448525
 30
0.0
 10
21.49893897697472
 20
724.362350491386
 30
0.0
 10
21.49893897697472
 20
724.362350491386
 30
0.0
 10
22.94122765182587
 20
725.8034880978619
 30
0.0
 10
22.94122765182587
 20
725.8034880978619
 30
0.0
 10
24.6091257283317
 20
724.1367410897356
 30
0.0
 10
26.16421910401227
 20
723.6256667308863
 30
0.0
 10
28.42606846241959
 20
723.6256667308863
 30
0.0
 10
31.39467380355975
 20
723.6256667308863
 30
0.0
 10
33.20415329028656
 20
724.983927414307
 30
0.0
 10
33.20415329028656
 20
727.3597325419194
 30
0.0
 10
33.20415329028656
 20
728.4325282681486
 30
0.0
 10
32.89336482882481
 20
729.2820167294736
 30
0.0
 10
32.21423448711367
 20
729.8759680113774
 30
0.0
 10
31.59265756419433
 20
730.4399915155075
 30
0.0
 10
31.0274829916844
 20
730.6379752761446
 30
0.0
 10
29.58519431683325
 20
730.8635846777913
 30
0.0
 10
29.58519431683325
 20
730.8635846777913
 30
0.0
 10
27.23816589861629
 20
731.204300917028
 30
0.0
 10
27.23816589861629
 20
731.204300917028
 30
0.0
 10
25.65544688191786
 20
731.4575359596957
 30
0.0
 10
24.46754431811071
 20
731.9386825407742
 30
0.0
 10
23.56280457474746
 20
732.7306175833115
 30
0.0
 10
22.54526013055703
 20
733.6353573266741
 30
0.0
 10
22.00771119906689
 20
734.8785111725164
 30
0.0
 10
22.00771119906689
 20
736.5199346763823
 30
0.0
 10
22.00771119906689
 20
739.9409098891997
 30
0.0
 10
24.46754431811071
 20
742.173982538216
 30
0.0
 10
28.45484517181533
 20
742.173982538216
 30
0.0
 10
31.0274829916844
 20
742.173982538216
 30
0.0
 10
32.72300670921
 20
741.494852196504
 30
0.0
 10
34.44845820450313
 20
739.9685355302204
 30
0.0
  0
SPLINE
  5
C7
330
C2
100
AcDbEntity
  8
Layer 1
 62
    40
370
    13
100
AcDbSpline
210
0.0
220
0.0
230
1.0
 70
    11
 71
     3
 72
    53
 73
    49
 74
     0
 42
0.0000000001
 43
0.0000000001
 12
1.0
 22
0.0
 32
0.0
 13
1.0
 23
0.0
 33
0.0
 40
0.0
 40
0.0
 40
0.0
 40
0.0
 40
1.0
 40
1.0
 40
1.0
 40
2.0
 40
2.0
 40
2.0
 40
3.0
 40
3.0
 40
3.0
 40
4.0
 40
4.0
 40
4.0
 40
5.0
 40
5.0
 40
5.0
 40
6.0
 40
6.0
 40
6.0
 40
7.0
 40
7.0
 40
7.0
 40
8.0
 40
8.0
 40
8.0
 40
9.0
 40
9.0
 40
9.0
 40
10.0
 40
10.0
 40
10.0
 40
11.0
 40
11.0
 40
11.0
 40
12.0
 40
12.0
 40
12.0
 40
13.0
 40
13.0
 40
13.0
 40
14.0
 40
14.0
 40
14.0
 40
15.0
 40
15.0
 40
15.0
 40
16.0
 40
16.0
 40
16.0
 40
16.0
 10
41.83716610863905
 20
735.7832509158828
 30
0.0
 10
41.83716610863905
 20
735.7832509158828
 30
0.0
 10
44.80577144977921
 20
735.7832509158828
 30
0.0
 10
44.80577144977921
 20
735.7832509158828
 30
0.0
 10
44.80577144977921
 20
735.7832509158828
 30
0.0
 10
44.80577144977921
 20
734.2293086085747
 30
0.0
 10
44.80577144977921
 20
734.2293086085747
 30
0.0
 10
44.80577144977921
 20
734.2293086085747
 30
0.0
 10
41.83716610863905
 20
734.2293086085747
 30
0.0
 10
41.83716610863905
 20
734.2293086085747
 30
0.0
 10
41.83716610863905
 20
734.2293086085747
 30
0.0
 10
41.83716610863905
 20
725.6630577560194
 30
0.0
 10
41.83716610863905
 20
725.6630577560194
 30
0.0
 10
41.83716610863905
 20
724.362350491386
 30
0.0
 10
42.43111739054665
 20
723.6256667308863
 30
0.0
 10
43.73182465517488
 20
723.6256667308863
 30
0.0
 10
43.73182465517488
 20
723.6256667308863
 30
0.0
 10
44.80577144977921
 20
723.6256667308863
 30
0.0
 10
44.80577144977921
 20
723.6256667308863
 30
0.0
 10
44.80577144977921
 20
723.6256667308863
 30
0.0
 10
44.80577144977921
 20
721.8737406629484
 30
0.0
 10
44.80577144977921
 20
721.8737406629484
 30
0.0
 10
44.80577144977921
 20
721.8737406629484
 30
0.0
 10
43.36348277492582
 20
721.8737406629484
 30
0.0
 10
43.36348277492582
 20
721.8737406629484
 30
0.0
 10
40.98882871569132
 20
721.8737406629484
 30
0.0
 10
39.80092615188385
 20
723.5427898078318
 30
0.0
 10
39.80092615188385
 20
725.6055043372282
 30
0.0
 10
39.80092615188385
 20
725.6055043372282
 30
0.0
 10
39.80092615188385
 20
734.2293086085747
 30
0.0
 10
39.80092615188385
 20
734.2293086085747
 30
0.0
 10
39.80092615188385
 20
734.2293086085747
 30
0.0
 10
38.04784901557062
 20
734.2293086085747
 30
0.0
 10
38.04784901557062
 20
734.2293086085747
 30
0.0
 10
38.04784901557062
 20
734.2293086085747
 30
0.0
 10
38.04784901557062
 20
735.7832509158828
 30
0.0
 10
38.04784901557062
 20
735.7832509158828
 30
0.0
 10
38.04784901557062
 20
735.7832509158828
 30
0.0
 10
39.80092615188385
 20
735.7832509158828
 30
0.0
 10
39.80092615188385
 20
735.7832509158828
 30
0.0
 10
39.80092615188385
 20
735.7832509158828
 30
0.0
 10
39.80092615188385
 20
740.0537145900249
 30
0.0
 10
39.80092615188385
 20
740.0537145900249
 30
0.0
 10
39.80092615188385
 20
740.0537145900249
 30
0.0
 10
41.83716610863905
 20
740.0537145900249
 30
0.0
 10
41.83716610863905
 20
740.0537145900249
 30
0.0
 10
41.83716610863905
 20
740.0537145900249
 30
0.0
 10
41.83716610863905
 20
735.7832509158828
 30
0.0
 10
41.83716610863905
 20
735.7832509158828
 30
0.0
  0
SPLINE
  5
C8
330
C2
100
AcDbEntity
  8
Layer 1
 62
    40
370
    13
100
AcDbSpline
210
0.0
220
0.0
230
1.0
 70
    11
 71
     3
 72
    35
 73
    31
 74
     0
 42
0.0000000001
 43
0.0000000001
 12
1.0
 22
0.0
 32
0.0
 13
1.0
 23
0.0
 33
0.0
 40
0.0
 40
0.0
 40
0.0
 40
0.0
 40
1.0
 40
1.0
 40
1.0
 40
2.0
 40
2.0
 40
2.0
 40
3.0
 40
3.0
 40
3.0
 40
4.0
 40
4.0
 40
4.0
 40
5.0
 40
5.0
 40
5.0
 40
6.0
 40
6.0
 40
6.0
 40
7.0
 40
7.0
 40
7.0
 40
8.0
 40
8.0
 40
8.0
 40
9.0
 40
9.0
 40
9.0
 40
10.0
 40
10.0
 40
10.0
 40
10.0
 10
58.12593469431117
 20
734.6529017708658
 30
0.0
 10
58.12593469431117
 20
734.6529017708658
 30
0.0
 10
56.62724366904418
 20
733.1265851045823
 30
0.0
 10
56.62724366904418
 20
733.1265851045823
 30
0.0
 10
55.86408533590385
 20
733.8908945060989
 30
0.0
 10
55.29891076339393
 20
734.1441295487698
 30
0.0
 10
54.22496396879183
 20
734.1441295487698
 30
0.0
 10
52.1887240120347
 20
734.1441295487698
 30
0.0
 10
50.8880167474023
 20
732.5326338226779
 30
0.0
 10
50.8880167474023
 20
730.4123658744871
 30
0.0
 10
50.8880167474023
 20
730.4123658744871
 30
0.0
 10
50.8880167474023
 20
721.8737406629484
 30
0.0
 10
50.8880167474023
 20
721.8737406629484
 30
0.0
 10
50.8880167474023
 20
721.8737406629484
 30
0.0
 10
48.85292785902337
 20
721.8737406629484
 30
0.0
 10
48.85292785902337
 20
721.8737406629484
 30
0.0
 10
48.85292785902337
 20
721.8737406629484
 30
0.0
 10
48.85292785902337
 20
735.7832509158828
 30
0.0
 10
48.85292785902337
 20
735.7832509158828
 30
0.0
 10
48.85292785902337
 20
735.7832509158828
 30
0.0
 10
50.8880167474023
 20
735.7832509158828
 30
0.0
 10
50.8880167474023
 20
735.7832509158828
 30
0.0
 10
50.8880167474023
 20
735.7832509158828
 30
0.0
 10
50.8880167474023
 20
734.0865761299822
 30
0.0
 10
50.8880167474023
 20
734.0865761299822
 30
0.0
 10
51.6511750805468
 20
735.2468530527699
 30
0.0
 10
53.17864281520535
 20
735.9536090354957
 30
0.0
 10
54.79013854129727
 20
735.9536090354957
 30
0.0
 10
56.1184714469501
 20
735.9536090354957
 30
0.0
 10
57.13601589114052
 20
735.6428205740365
 30
0.0
 10
58.12593469431117
 20
734.6529017708658
 30
0.0
  0
SPLINE
  5
C9
330
C2
100
AcDbEntity
  8
Layer 1
 62
    40
370
    13
100
AcDbSpline
210
0.0
220
0.0
230
1.0
 70
    11
 71
     3
 72
    44
 73
    40
 74
     0
 42
0.0000000001
 43
0.0000000001
 12
1.0
 22
0.0
 32
0.0
 13
1.0
 23
0.0
 33
0.0
 40
0.0
 40
0.0
 40
0.0
 40
0.0
 40
1.0
 40
1.0
 40
1.0
 40
2.0
 40
2.0
 40
2.0
 40
3.0
 40
3.0
 40
3.0
 40
4.0
 40
4.0
 40
4.0
 40
5.0
 40
5.0
 40
5.0
 40
6.0
 40
6.0
 40
6.0
 40
7.0
 40
7.0
 40
7.0
 40
8.0
 40
8.0
 40
8.0
 40
9.0
 40
9.0
 40
9.0
 40
10.0
 40
10.0
 40
10.0
 40
11.0
 40
11.0
 40
11.0
 40
12.0
 40
12.0
 40
12.0
 40
13.0
 40
13.0
 40
13.0
 40
13.0
 10
71.59113255419167
 20
721.8737406629484
 30
0.0
 10
71.59113255419167
 20
721.8737406629484
 30
0.0
 10
69.5836693068306
 20
721.8737406629484
 30
0.0
 10
69.5836693068306
 20
721.8737406629484
 30
0.0
 10
69.5836693068306
 20
721.8737406629484
 30
0.0
 10
69.5836693068306
 20
723.4276829702527
 30
0.0
 10
69.5836693068306
 20
723.4276829702527
 30
0.0
 10
68.59375050366026
 20
722.297333825236
 30
0.0
 10
67.2090152475961
 20
721.7033825433323
 30
0.0
 10
65.65392187191777
 20
721.7033825433323
 30
0.0
 10
64.15523084664854
 20
721.7033825433323
 30
0.0
 10
62.91092593243197
 20
722.1569034833904
 30
0.0
 10
62.06373960785795
 20
723.0040898079653
 30
0.0
 10
61.07382080468538
 20
723.9663829701155
 30
0.0
 10
60.62145093300263
 20
725.2947158757694
 30
0.0
 10
60.62145093300263
 20
726.9062116018613
 30
0.0
 10
60.62145093300263
 20
726.9062116018613
 30
0.0
 10
60.62145093300263
 20
735.7832509158828
 30
0.0
 10
60.62145093300263
 20
735.7832509158828
 30
0.0
 10
60.62145093300263
 20
735.7832509158828
 30
0.0
 10
62.6565398213838
 20
735.7832509158828
 30
0.0
 10
62.6565398213838
 20
735.7832509158828
 30
0.0
 10
62.6565398213838
 20
735.7832509158828
 30
0.0
 10
62.6565398213838
 20
727.2170000633237
 30
0.0
 10
62.6565398213838
 20
727.2170000633237
 30
0.0
 10
62.6565398213838
 20
724.7583180126533
 30
0.0
 10
63.98602379540969
 20
723.5128620300575
 30
0.0
 10
66.07751503420445
 20
723.5128620300575
 30
0.0
 10
68.17015734137134
 20
723.5128620300575
 30
0.0
 10
69.55604366581306
 20
724.7859436536737
 30
0.0
 10
69.55604366581306
 20
727.2170000633237
 30
0.0
 10
69.55604366581306
 20
727.2170000633237
 30
0.0
 10
69.55604366581306
 20
735.7832509158828
 30
0.0
 10
69.55604366581306
 20
735.7832509158828
 30
0.0
 10
69.55604366581306
 20
735.7832509158828
 30
0.0
 10
71.59113255419167
 20
735.7832509158828
 30
0.0
 10
71.59113255419167
 20
735.7832509158828
 30
0.0
 10
71.59113255419167
 20
735.7832509158828
 30
0.0
 10
71.59113255419167
 20
721.8737406629484
 30
0.0
 10
71.59113255419167
 20
721.8737406629484
 30
0.0
  0
SPLINE
  5
CA
330
C2
100
AcDbEntity
  8
Layer 1
 62
    40
370
    13
100
AcDbSpline
210
0.0
220
0.0
230
1.0
 70
    11
 71
     3
 72
    41
 73
    37
 74
     0
 42
0.0000000001
 43
0.0000000001
 12
1.0
 22
0.0
 32
0.0
 13
1.0
 23
0.0
 33
0.0
 40
0.0
 40
0.0
 40
0.0
 40
0.0
 40
1.0
 40
1.0
 40
1.0
 40
2.0
 40
2.0
 40
2.0
 40
3.0
 40
3.0
 40
3.0
 40
4.0
 40
4.0
 40
4.0
 40
5.0
 40
5.0
 40
5.0
 40
6.0
 40
6.0
 40
6.0
 40
7.0
 40
7.0
 40
7.0
 40
8.0
 40
8.0
 40
8.0
 40
9.0
 40
9.0
 40
9.0
 40
10.0
 40
10.0
 40
10.0
 40
11.0
 40
11.0
 40
11.0
 40
12.0
 40
12.0
 40
12.0
 40
12.0
 10
86.69775391793706
 20
733.8908945060989
 30
0.0
 10
86.69775391793706
 20
733.8908945060989
 30
0.0
 10
85.31186759349725
 20
732.5901872414655
 30
0.0
 10
85.31186759349725
 20
732.5901872414655
 30
0.0
 10
84.2655464399127
 20
733.7481620274993
 30
0.0
 10
83.44598575635685
 20
734.1441295487698
 30
0.0
 10
82.11765285070723
 20
734.1441295487698
 30
0.0
 10
80.76054323566059
 20
734.1441295487698
 30
0.0
 10
79.62904302226896
 20
733.6077316856572
 30
0.0
 10
78.89466139852051
 20
732.5602594636952
 30
0.0
 10
78.24430776620511
 20
731.6555197203326
 30
0.0
 10
77.98992165515693
 20
730.5827239941032
 30
0.0
 10
77.98992165515693
 20
728.8284957894156
 30
0.0
 10
77.98992165515693
 20
727.076569721478
 30
0.0
 10
78.24430776620511
 20
726.0014718584952
 30
0.0
 10
78.89466139852051
 20
725.0967321151361
 30
0.0
 10
79.62904302226896
 20
724.0515620299275
 30
0.0
 10
80.76054323566059
 20
723.5128620300575
 30
0.0
 10
82.11765285070723
 20
723.5128620300575
 30
0.0
 10
83.44598575635685
 20
723.5128620300575
 30
0.0
 10
84.2655464399127
 20
723.9387573290984
 30
0.0
 10
85.31186759349725
 20
725.0967321151361
 30
0.0
 10
85.31186759349725
 20
725.0967321151361
 30
0.0
 10
86.69775391793706
 20
723.7683992094856
 30
0.0
 10
86.69775391793706
 20
723.7683992094856
 30
0.0
 10
85.25546524308335
 20
722.212154765428
 30
0.0
 10
84.03993703826059
 20
721.7033825433323
 30
0.0
 10
82.11765285070723
 20
721.7033825433323
 30
0.0
 10
78.61149857807852
 20
721.7033825433323
 30
0.0
 10
75.95368169840205
 20
724.0791876709446
 30
0.0
 10
75.95368169840205
 20
728.8284957894156
 30
0.0
 10
75.95368169840205
 20
733.5778039078865
 30
0.0
 10
78.61149857807852
 20
735.9536090354957
 30
0.0
 10
82.11765285070723
 20
735.9536090354957
 30
0.0
 10
84.03993703826059
 20
735.9536090354957
 30
0.0
 10
85.25546524308335
 20
735.4448368134032
 30
0.0
 10
86.69775391793706
 20
733.8908945060989
 30
0.0
  0
SPLINE
  5
CB
330
C2
100
AcDbEntity
  8
Layer 1
 62
    40
370
    13
100
AcDbSpline
210
0.0
220
0.0
230
1.0
 70
    11
 71
     3
 72
    53
 73
    49
 74
     0
 42
0.0000000001
 43
0.0000000001
 12
1.0
 22
0.0
 32
0.0
 13
1.0
 23
0.0
 33
0.0
 40
0.0
 40
0.0
 40
0.0
 40
0.0
 40
1.0
 40
1.0
 40
1.0
 40
2.0
 40
2.0
 40
2.0
 40
3.0
 40
3.0
 40
3.0
 40
4.0
 40
4.0
 40
4.0
 40
5.0
 40
5.0
 40
5.0
 40
6.0
 40
6.0
 40
6.0
 40
7.0
 40
7.0
 40
7.0
 40
8.0
 40
8.0
 40
8.0
 40
9.0
 40
9.0
 40
9.0
 40
10.0
 40
10.0
 40
10.0
 40
11.0
 40
11.0
 40
11.0
 40
12.0
 40
12.0
 40
12.0
 40
13.0
 40
13.0
 40
13.0
 40
14.0
 40
14.0
 40
14.0
 40
15.0
 40
15.0
 40
15.0
 40
16.0
 40
16.0
 40
16.0
 40
16.0
 10
92.95381054030283
 20
735.7832509158828
 30
0.0
 10
92.95381054030283
 20
735.7832509158828
 30
0.0
 10
95.92241588144297
 20
735.7832509158828
 30
0.0
 10
95.92241588144297
 20
735.7832509158828
 30
0.0
 10
95.92241588144297
 20
735.7832509158828
 30
0.0
 10
95.92241588144297
 20
734.2293086085747
 30
0.0
 10
95.92241588144297
 20
734.2293086085747
 30
0.0
 10
95.92241588144297
 20
734.2293086085747
 30
0.0
 10
92.95381054030283
 20
734.2293086085747
 30
0.0
 10
92.95381054030283
 20
734.2293086085747
 30
0.0
 10
92.95381054030283
 20
734.2293086085747
 30
0.0
 10
92.95381054030283
 20
725.6630577560194
 30
0.0
 10
92.95381054030283
 20
725.6630577560194
 30
0.0
 10
92.95381054030283
 20
724.362350491386
 30
0.0
 10
93.54776182220655
 20
723.6256667308863
 30
0.0
 10
94.8484690868412
 20
723.6256667308863
 30
0.0
 10
94.8484690868412
 20
723.6256667308863
 30
0.0
 10
95.92241588144297
 20
723.6256667308863
 30
0.0
 10
95.92241588144297
 20
723.6256667308863
 30
0.0
 10
95.92241588144297
 20
723.6256667308863
 30
0.0
 10
95.92241588144297
 20
721.8737406629484
 30
0.0
 10
95.92241588144297
 20
721.8737406629484
 30
0.0
 10
95.92241588144297
 20
721.8737406629484
 30
0.0
 10
94.48012720658959
 20
721.8737406629484
 30
0.0
 10
94.48012720658959
 20
721.8737406629484
 30
0.0
 10
92.10547314735508
 20
721.8737406629484
 30
0.0
 10
90.91757058354825
 20
723.5427898078318
 30
0.0
 10
90.91757058354825
 20
725.6055043372282
 30
0.0
 10
90.91757058354825
 20
725.6055043372282
 30
0.0
 10
90.91757058354825
 20
734.2293086085747
 30
0.0
 10
90.91757058354825
 20
734.2293086085747
 30
0.0
 10
90.91757058354825
 20
734.2293086085747
 30
0.0
 10
89.16449344723503
 20
734.2293086085747
 30
0.0
 10
89.16449344723503
 20
734.2293086085747
 30
0.0
 10
89.16449344723503
 20
734.2293086085747
 30
0.0
 10
89.16449344723503
 20
735.7832509158828
 30
0.0
 10
89.16449344723503
 20
735.7832509158828
 30
0.0
 10
89.16449344723503
 20
735.7832509158828
 30
0.0
 10
90.91757058354825
 20
735.7832509158828
 30
0.0
 10
90.91757058354825
 20
735.7832509158828
 30
0.0
 10
90.91757058354825
 20
735.7832509158828
 30
0.0
 10
90.91757058354825
 20
740.0537145900249
 30
0.0
 10
90.91757058354825
 20
740.0537145900249
 30
0.0
 10
90.91757058354825
 20
740.0537145900249
 30
0.0
 10
92.95381054030283
 20
740.0537145900249
 30
0.0
 10
92.95381054030283
 20
740.0537145900249
 30
0.0
 10
92.95381054030283
 20
740.0537145900249
 30
0.0
 10
92.95381054030283
 20
735.7832509158828
 30
0.0
 10
92.95381054030283
 20
735.7832509158828
 30
0.0
  0
SPLINE
  5
CC
330
C2
100
AcDbEntity
  8
Layer 1
 62
    40
370
    13
100
AcDbSpline
210
0.0
220
0.0
230
1.0
 70
    11
 71
     3
 72
    44
 73
    40
 74
     0
 42
0.0000000001
 43
0.0000000001
 12
1.0
 22
0.0
 32
0.0
 13
1.0
 23
0.0
 33
0.0
 40
0.0
 40
0.0
 40
0.0
 40
0.0
 40
1.0
 40
1.0
 40
1.0
 40
2.0
 40
2.0
 40
2.0
 40
3.0
 40
3.0
 40
3.0
 40
4.0
 40
4.0
 40
4.0
 40
5.0
 40
5.0
 40
5.0
 40
6.0
 40
6.0
 40
6.0
 40
7.0
 40
7.0
 40
7.0
 40
8.0
 40
8.0
 40
8.0
 40
9.0
 40
9.0
 40
9.0
 40
10.0
 40
10.0
 40
10.0
 40
11.0
 40
11.0
 40
11.0
 40
12.0
 40
12.0
 40
12.0
 40
13.0
 40
13.0
 40
13.0
 40
13.0
 10
110.7976725016555
 20
721.8737406629484
 30
0.0
 10
110.7976725016555
 20
721.8737406629484
 30
0.0
 10
108.7902092542944
 20
721.8737406629484
 30
0.0
 10
108.7902092542944
 20
721.8737406629484
 30
0.0
 10
108.7902092542944
 20
721.8737406629484
 30
0.0
 10
108.7902092542944
 20
723.4276829702527
 30
0.0
 10
108.7902092542944
 20
723.4276829702527
 30
0.0
 10
107.8002904511215
 20
722.297333825236
 30
0.0
 10
106.4155551950577
 20
721.7033825433323
 30
0.0
 10
104.8604618193794
 20
721.7033825433323
 30
0.0
 10
103.3617707941121
 20
721.7033825433323
 30
0.0
 10
102.1174658798936
 20
722.1569034833904
 30
0.0
 10
101.2691284869436
 20
723.0040898079653
 30
0.0
 10
100.280360752147
 20
723.9663829701155
 30
0.0
 10
99.82799088046615
 20
725.2947158757694
 30
0.0
 10
99.82799088046615
 20
726.9062116018613
 30
0.0
 10
99.82799088046615
 20
726.9062116018613
 30
0.0
 10
99.82799088046615
 20
735.7832509158828
 30
0.0
 10
99.82799088046615
 20
735.7832509158828
 30
0.0
 10
99.82799088046615
 20
735.7832509158828
 30
0.0
 10
101.8630797688454
 20
735.7832509158828
 30
0.0
 10
101.8630797688454
 20
735.7832509158828
 30
0.0
 10
101.8630797688454
 20
735.7832509158828
 30
0.0
 10
101.8630797688454
 20
727.2170000633237
 30
0.0
 10
101.8630797688454
 20
727.2170000633237
 30
0.0
 10
101.8630797688454
 20
724.7583180126533
 30
0.0
 10
103.1925637428732
 20
723.5128620300575
 30
0.0
 10
105.284054981666
 20
723.5128620300575
 30
0.0
 10
107.3766972888345
 20
723.5128620300575
 30
0.0
 10
108.7625836132743
 20
724.7859436536737
 30
0.0
 10
108.7625836132743
 20
727.2170000633237
 30
0.0
 10
108.7625836132743
 20
727.2170000633237
 30
0.0
 10
108.7625836132743
 20
735.7832509158828
 30
0.0
 10
108.7625836132743
 20
735.7832509158828
 30
0.0
 10
108.7625836132743
 20
735.7832509158828
 30
0.0
 10
110.7976725016555
 20
735.7832509158828
 30
0.0
 10
110.7976725016555
 20
735.7832509158828
 30
0.0
 10
110.7976725016555
 20
735.7832509158828
 30
0.0
 10
110.7976725016555
 20
721.8737406629484
 30
0.0
 10
110.7976725016555
 20
721.8737406629484
 30
0.0
  0
SPLINE
  5
CD
330
C2
100
AcDbEntity
  8
Layer 1
 62
    40
370
    13
100
AcDbSpline
210
0.0
220
0.0
230
1.0
 70
    11
 71
     3
 72
    35
 73
    31
 74
     0
 42
0.0000000001
 43
0.0000000001
 12
1.0
 22
0.0
 32
0.0
 13
1.0
 23
0.0
 33
0.0
 40
0.0
 40
0.0
 40
0.0
 40
0.0
 40
1.0
 40
1.0
 40
1.0
 40
2.0
 40
2.0
 40
2.0
 40
3.0
 40
3.0
 40
3.0
 40
4.0
 40
4.0
 40
4.0
 40
5.0
 40
5.0
 40
5.0
 40
6.0
 40
6.0
 40
6.0
 40
7.0
 40
7.0
 40
7.0
 40
8.0
 40
8.0
 40
8.0
 40
9.0
 40
9.0
 40
9.0
 40
10.0
 40
10.0
 40
10.0
 40
10.0
 10
125.1699122416499
 20
734.6529017708658
 30
0.0
 10
125.1699122416499
 20
734.6529017708658
 30
0.0
 10
123.6712212163848
 20
733.1265851045823
 30
0.0
 10
123.6712212163848
 20
733.1265851045823
 30
0.0
 10
122.9069118148666
 20
733.8908945060989
 30
0.0
 10
122.3405861739823
 20
734.1441295487698
 30
0.0
 10
121.2677904477546
 20
734.1441295487698
 30
0.0
 10
119.2303994226234
 20
734.1441295487698
 30
0.0
 10
117.9319942947429
 20
732.5326338226779
 30
0.0
 10
117.9319942947429
 20
730.4123658744871
 30
0.0
 10
117.9319942947429
 20
730.4123658744871
 30
0.0
 10
117.9319942947429
 20
721.8737406629484
 30
0.0
 10
117.9319942947429
 20
721.8737406629484
 30
0.0
 10
117.9319942947429
 20
721.8737406629484
 30
0.0
 10
115.8946032696098
 20
721.8737406629484
 30
0.0
 10
115.8946032696098
 20
721.8737406629484
 30
0.0
 10
115.8946032696098
 20
721.8737406629484
 30
0.0
 10
115.8946032696098
 20
735.7832509158828
 30
0.0
 10
115.8946032696098
 20
735.7832509158828
 30
0.0
 10
115.8946032696098
 20
735.7832509158828
 30
0.0
 10
117.9319942947429
 20
735.7832509158828
 30
0.0
 10
117.9319942947429
 20
735.7832509158828
 30
0.0
 10
117.9319942947429
 20
735.7832509158828
 30
0.0
 10
117.9319942947429
 20
734.0865761299822
 30
0.0
 10
117.9319942947429
 20
734.0865761299822
 30
0.0
 10
118.6940015595092
 20
735.2468530527699
 30
0.0
 10
120.2203182257941
 20
735.9536090354957
 30
0.0
 10
121.8318139518908
 20
735.9536090354957
 30
0.0
 10
123.1624489942885
 20
735.9536090354957
 30
0.0
 10
124.1799934384812
 20
735.6428205740365
 30
0.0
 10
125.1699122416499
 20
734.6529017708658
 30
0.0
  0
SPLINE
  5
CE
330
C2
100
AcDbEntity
  8
Layer 1
 62
    40
370
    13
100
AcDbSpline
210
0.0
220
0.0
230
1.0
 70
    11
 71
     3
 72
    47
 73
    43
 74
     0
 42
0.0000000001
 43
0.0000000001
 12
1.0
 22
0.0
 32
0.0
 13
1.0
 23
0.0
 33
0.0
 40
0.0
 40
0.0
 40
0.0
 40
0.0
 40
1.0
 40
1.0
 40
1.0
 40
2.0
 40
2.0
 40
2.0
 40
3.0
 40
3.0
 40
3.0
 40
4.0
 40
4.0
 40
4.0
 40
5.0
 40
5.0
 40
5.0
 40
6.0
 40
6.0
 40
6.0
 40
7.0
 40
7.0
 40
7.0
 40
8.0
 40
8.0
 40
8.0
 40
9.0
 40
9.0
 40
9.0
 40
10.0
 40
10.0
 40
10.0
 40
11.0
 40
11.0
 40
11.0
 40
12.0
 40
12.0
 40
12.0
 40
13.0
 40
13.0
 40
13.0
 40
14.0
 40
14.0
 40
14.0
 40
14.0
 10
137.4449054009755
 20
731.3171056178533
 30
0.0
 10
137.4449054009755
 20
731.3171056178533
 30
0.0
 10
137.4449054009755
 20
721.8737406629484
 30
0.0
 10
137.4449054009755
 20
721.8737406629484
 30
0.0
 10
137.4449054009755
 20
721.8737406629484
 30
0.0
 10
135.4098165125963
 20
721.8737406629484
 30
0.0
 10
135.4098165125963
 20
721.8737406629484
 30
0.0
 10
135.4098165125963
 20
721.8737406629484
 30
0.0
 10
135.4098165125963
 20
723.202073568599
 30
0.0
 10
135.4098165125963
 20
723.202073568599
 30
0.0
 10
134.3070930085987
 20
722.0993500646027
 30
0.0
 10
133.2596207866385
 20
721.7033825433323
 30
0.0
 10
131.3948900178741
 20
721.7033825433323
 30
0.0
 10
129.4726058303179
 20
721.7033825433323
 30
0.0
 10
128.425133608358
 20
722.0440987825651
 30
0.0
 10
127.4651425829568
 20
722.9764641669485
 30
0.0
 10
126.7583866002281
 20
723.655594508657
 30
0.0
 10
126.4176703609963
 20
724.7007645938656
 30
0.0
 10
126.4176703609963
 20
725.8034880978619
 30
0.0
 10
126.4176703609963
 20
728.2644722852855
 30
0.0
 10
128.1442729246679
 20
729.8184145925827
 30
0.0
 10
131.2521575392771
 20
729.8184145925827
 30
0.0
 10
131.2521575392771
 20
729.8184145925827
 30
0.0
 10
135.4098165125963
 20
729.8184145925827
 30
0.0
 10
135.4098165125963
 20
729.8184145925827
 30
0.0
 10
135.4098165125963
 20
729.8184145925827
 30
0.0
 10
135.4098165125963
 20
731.1467474982333
 30
0.0
 10
135.4098165125963
 20
731.1467474982333
 30
0.0
 10
135.4098165125963
 20
733.1542107455956
 30
0.0
 10
134.4198977094214
 20
734.2016829675574
 30
0.0
 10
131.8461088211764
 20
734.2016829675574
 30
0.0
 10
130.0941827532414
 20
734.2016829675574
 30
0.0
 10
129.1894430098762
 20
733.7481620274993
 30
0.0
 10
128.3399545485503
 20
732.5901872414655
 30
0.0
 10
128.3399545485503
 20
732.5901872414655
 30
0.0
 10
126.9563703608624
 20
733.8609667283285
 30
0.0
 10
126.9563703608624
 20
733.8609667283285
 30
0.0
 10
128.1718985656877
 20
735.4724624544205
 30
0.0
 10
129.5854105311457
 20
735.9536090354957
 30
0.0
 10
131.8760365989484
 20
735.9536090354957
 30
0.0
 10
135.6354259142487
 20
735.9536090354957
 30
0.0
 10
137.4449054009755
 20
734.3144876683828
 30
0.0
 10
137.4449054009755
 20
731.3171056178533
 30
0.0
  0
SPLINE
  5
CF
330
C2
100
AcDbEntity
  8
Layer 1
 62
    40
370
    13
100
AcDbSpline
210
0.0
220
0.0
230
1.0
 70
    11
 71
     3
 72
    23
 73
    19
 74
     0
 42
0.0000000001
 43
0.0000000001
 12
1.0
 22
0.0
 32
0.0
 13
1.0
 23
0.0
 33
0.0
 40
0.0
 40
0.0
 40
0.0
 40
0.0
 40
1.0
 40
1.0
 40
1.0
 40
2.0
 40
2.0
 40
2.0
 40
3.0
 40
3.0
 40
3.0
 40
4.0
 40
4.0
 40
4.0
 40
5.0
 40
5.0
 40
5.0
 40
6.0
 40
6.0
 40
6.0
 40
6.0
 10
131.5353203597188
 20
728.2920979262992
 30
0.0
 10
129.4426780525506
 20
728.2920979262992
 30
0.0
 10
128.3975079673382
 20
727.4725372427446
 30
0.0
 10
128.3975079673382
 20
725.8311137388823
 30
0.0
 10
128.3975079673382
 20
724.2196180127903
 30
0.0
 10
129.3874267705127
 20
723.4576107480234
 30
0.0
 10
131.6204994195259
 20
723.4576107480234
 30
0.0
 10
132.7807763423142
 20
723.4576107480234
 30
0.0
 10
133.7983207865021
 20
723.5704154488521
 30
0.0
 10
134.7030605298679
 20
724.3899761324033
 30
0.0
 10
135.1842071109425
 20
724.8434970724613
 30
0.0
 10
135.4098165125963
 20
725.633129978249
 30
0.0
 10
135.4098165125963
 20
726.7934069010361
 30
0.0
 10
135.4098165125963
 20
726.7934069010361
 30
0.0
 10
135.4098165125963
 20
728.2920979262992
 30
0.0
 10
135.4098165125963
 20
728.2920979262992
 30
0.0
 10
135.4098165125963
 20
728.2920979262992
 30
0.0
 10
131.5353203597188
 20
728.2920979262992
 30
0.0
 10
131.5353203597188
 20
728.2920979262992
 30
0.0
  0
SPLINE
  5
D0
330
C2
100
AcDbEntity
  8
Layer 1
 62
    40
370
    13
100
AcDbSpline
210
0.0
220
0.0
230
1.0
 70
    11
 71
     3
 72
    29
 73
    25
 74
     0
 42
0.0000000001
 43
0.0000000001
 12
1.0
 22
0.0
 32
0.0
 13
1.0
 23
0.0
 33
0.0
 40
0.0
 40
0.0
 40
0.0
 40
0.0
 40
1.0
 40
1.0
 40
1.0
 40
2.0
 40
2.0
 40
2.0
 40
3.0
 40
3.0
 40
3.0
 40
4.0
 40
4.0
 40
4.0
 40
5.0
 40
5.0
 40
5.0
 40
6.0
 40
6.0
 40
6.0
 40
7.0
 40
7.0
 40
7.0
 40
8.0
 40
8.0
 40
8.0
 40
8.0
 10
144.3812434334306
 20
725.6630577560194
 30
0.0
 10
144.3812434334306
 20
724.3047970725984
 30
0.0
 10
144.834764373487
 20
723.6256667308863
 30
0.0
 10
146.2482763389447
 20
723.6256667308863
 30
0.0
 10
146.2482763389447
 20
723.6256667308863
 30
0.0
 10
147.3509998429448
 20
723.6256667308863
 30
0.0
 10
147.3509998429448
 20
723.6256667308863
 30
0.0
 10
147.3509998429448
 20
723.6256667308863
 30
0.0
 10
147.3509998429448
 20
721.8737406629484
 30
0.0
 10
147.3509998429448
 20
721.8737406629484
 30
0.0
 10
147.3509998429448
 20
721.8737406629484
 30
0.0
 10
145.8799344586957
 20
721.8737406629484
 30
0.0
 10
145.8799344586957
 20
721.8737406629484
 30
0.0
 10
143.448878049045
 20
721.8737406629484
 30
0.0
 10
142.3461545450494
 20
723.4576107480234
 30
0.0
 10
142.3461545450494
 20
725.5778786962113
 30
0.0
 10
142.3461545450494
 20
725.5778786962113
 30
0.0
 10
142.3461545450494
 20
742.0036244186
 30
0.0
 10
142.3461545450494
 20
742.0036244186
 30
0.0
 10
142.3461545450494
 20
742.0036244186
 30
0.0
 10
144.3812434334306
 20
742.0036244186
 30
0.0
 10
144.3812434334306
 20
742.0036244186
 30
0.0
 10
144.3812434334306
 20
742.0036244186
 30
0.0
 10
144.3812434334306
 20
725.6630577560194
 30
0.0
 10
144.3812434334306
 20
725.6630577560194
 30
0.0
  0
SPLINE
  5
D1
330
C2
100
AcDbEntity
  8
Layer 1
 62
    40
370
    13
100
AcDbSpline
210
0.0
220
0.0
230
1.0
 70
    11
 71
     3
 72
    26
 73
    22
 74
     0
 42
0.0000000001
 43
0.0000000001
 12
1.0
 22
0.0
 32
0.0
 13
1.0
 23
0.0
 33
0.0
 40
0.0
 40
0.0
 40
0.0
 40
0.0
 40
1.0
 40
1.0
 40
1.0
 40
2.0
 40
2.0
 40
2.0
 40
3.0
 40
3.0
 40
3.0
 40
4.0
 40
4.0
 40
4.0
 40
5.0
 40
5.0
 40
5.0
 40
6.0
 40
6.0
 40
6.0
 40
7.0
 40
7.0
 40
7.0
 40
7.0
 10
165.7911152229486
 20
742.0036244186
 30
0.0
 10
169.2972694955751
 20
742.0036244186
 30
0.0
 10
171.7283259052251
 20
739.9961611712373
 30
0.0
 10
171.7283259052251
 20
736.6327393772075
 30
0.0
 10
171.7283259052251
 20
734.5124714290199
 30
0.0
 10
170.4575464183625
 20
732.8434222841403
 30
0.0
 10
168.7608716324628
 20
732.2218453612159
 30
0.0
 10
170.6831558200168
 20
731.5150893784904
 30
0.0
 10
172.0414165034346
 20
729.8460402336037
 30
0.0
 10
172.0414165034346
 20
727.4426094649742
 30
0.0
 10
172.0414165034346
 20
723.7960248505027
 30
0.0
 10
169.6080579570371
 20
721.8737406629484
 30
0.0
 10
166.0466524023708
 20
721.8737406629484
 30
0.0
 10
166.0466524023708
 20
721.8737406629484
 30
0.0
 10
158.2147831735608
 20
721.8737406629484
 30
0.0
 10
158.2147831735608
 20
721.8737406629484
 30
0.0
 10
158.2147831735608
 20
721.8737406629484
 30
0.0
 10
158.2147831735608
 20
742.0036244186
 30
0.0
 10
158.2147831735608
 20
742.0036244186
 30
0.0
 10
158.2147831735608
 20
742.0036244186
 30
0.0
 10
165.7911152229486
 20
742.0036244186
 30
0.0
 10
165.7911152229486
 20
742.0036244186
 30
0.0
  0
SPLINE
  5
D2
330
C2
100
AcDbEntity
  8
Layer 1
 62
    40
370
    13
100
AcDbSpline
210
0.0
220
0.0
230
1.0
 70
    11
 71
     3
 72
    20
 73
    16
 74
     0
 42
0.0000000001
 43
0.0000000001
 12
1.0
 22
0.0
 32
0.0
 13
1.0
 23
0.0
 33
0.0
 40
0.0
 40
0.0
 40
0.0
 40
0.0
 40
1.0
 40
1.0
 40
1.0
 40
2.0
 40
2.0
 40
2.0
 40
3.0
 40
3.0
 40
3.0
 40
4.0
 40
4.0
 40
4.0
 40
5.0
 40
5.0
 40
5.0
 40
5.0
 10
160.3626767627646
 20
740.0813402310457
 30
0.0
 10
160.3626767627646
 20
740.0813402310457
 30
0.0
 10
160.3626767627646
 20
733.0989594635615
 30
0.0
 10
160.3626767627646
 20
733.0989594635615
 30
0.0
 10
160.3626767627646
 20
733.0989594635615
 30
0.0
 10
165.6230592400819
 20
733.0989594635615
 30
0.0
 10
165.6230592400819
 20
733.0989594635615
 30
0.0
 10
167.856131889098
 20
733.0989594635615
 30
0.0
 10
169.5804323160167
 20
734.2016829675574
 30
0.0
 10
169.5804323160167
 20
736.605113736187
 30
0.0
 10
169.5804323160167
 20
739.0062423680666
 30
0.0
 10
167.856131889098
 20
740.0813402310457
 30
0.0
 10
165.6230592400819
 20
740.0813402310457
 30
0.0
 10
165.6230592400819
 20
740.0813402310457
 30
0.0
 10
160.3626767627646
 20
740.0813402310457
 30
0.0
 10
160.3626767627646
 20
740.0813402310457
 30
0.0
  0
SPLINE
  5
D3
330
C2
100
AcDbEntity
  8
Layer 1
 62
    40
370
    13
100
AcDbSpline
210
0.0
220
0.0
230
1.0
 70
    11
 71
     3
 72
    20
 73
    16
 74
     0
 42
0.0000000001
 43
0.0000000001
 12
1.0
 22
0.0
 32
0.0
 13
1.0
 23
0.0
 33
0.0
 40
0.0
 40
0.0
 40
0.0
 40
0.0
 40
1.0
 40
1.0
 40
1.0
 40
2.0
 40
2.0
 40
2.0
 40
3.0
 40
3.0
 40
3.0
 40
4.0
 40
4.0
 40
4.0
 40
5.0
 40
5.0
 40
5.0
 40
5.0
 10
160.3626767627646
 20
731.1766752760072
 30
0.0
 10
160.3626767627646
 20
731.1766752760072
 30
0.0
 10
160.3626767627646
 20
723.7960248505027
 30
0.0
 10
160.3626767627646
 20
723.7960248505027
 30
0.0
 10
160.3626767627646
 20
723.7960248505027
 30
0.0
 10
165.8486686417363
 20
723.7960248505027
 30
0.0
 10
165.8486686417363
 20
723.7960248505027
 30
0.0
 10
168.3372784701745
 20
723.7960248505027
 30
0.0
 10
169.8912207774788
 20
725.2371624569782
 30
0.0
 10
169.8912207774788
 20
727.5001628837654
 30
0.0
 10
169.8912207774788
 20
729.7608611737954
 30
0.0
 10
168.3372784701745
 20
731.1766752760072
 30
0.0
 10
165.8486686417363
 20
731.1766752760072
 30
0.0
 10
165.8486686417363
 20
731.1766752760072
 30
0.0
 10
160.3626767627646
 20
731.1766752760072
 30
0.0
 10
160.3626767627646
 20
731.1766752760072
 30
0.0
  0
SPLINE
  5
D4
330
C2
100
AcDbEntity
  8
Layer 1
 62
    40
370
    13
100
AcDbSpline
210
0.0
220
0.0
230
1.0
 70
    11
 71
     3
 72
    35
 73
    31
 74
     0
 42
0.0000000001
 43
0.0000000001
 12
1.0
 22
0.0
 32
0.0
 13
1.0
 23
0.0
 33
0.0
 40
0.0
 40
0.0
 40
0.0
 40
0.0
 40
1.0
 40
1.0
 40
1.0
 40
2.0
 40
2.0
 40
2.0
 40
3.0
 40
3.0
 40
3.0
 40
4.0
 40
4.0
 40
4.0
 40
5.0
 40
5.0
 40
5.0
 40
6.0
 40
6.0
 40
6.0
 40
7.0
 40
7.0
 40
7.0
 40
8.0
 40
8.0
 40
8.0
 40
9.0
 40
9.0
 40
9.0
 40
10.0
 40
10.0
 40
10.0
 40
10.0
 10
186.0176887221643
 20
734.6529017708658
 30
0.0
 10
186.0176887221643
 20
734.6529017708658
 30
0.0
 10
184.5189976968992
 20
733.1265851045823
 30
0.0
 10
184.5189976968992
 20
733.1265851045823
 30
0.0
 10
183.7546882953807
 20
733.8908945060989
 30
0.0
 10
183.1883626544968
 20
734.1441295487698
 30
0.0
 10
182.115566928269
 20
734.1441295487698
 30
0.0
 10
180.0804780398879
 20
734.1441295487698
 30
0.0
 10
178.7797707752574
 20
732.5326338226779
 30
0.0
 10
178.7797707752574
 20
730.4123658744871
 30
0.0
 10
178.7797707752574
 20
730.4123658744871
 30
0.0
 10
178.7797707752574
 20
721.8737406629484
 30
0.0
 10
178.7797707752574
 20
721.8737406629484
 30
0.0
 10
178.7797707752574
 20
721.8737406629484
 30
0.0
 10
176.7423797501243
 20
721.8737406629484
 30
0.0
 10
176.7423797501243
 20
721.8737406629484
 30
0.0
 10
176.7423797501243
 20
721.8737406629484
 30
0.0
 10
176.7423797501243
 20
735.7832509158828
 30
0.0
 10
176.7423797501243
 20
735.7832509158828
 30
0.0
 10
176.7423797501243
 20
735.7832509158828
 30
0.0
 10
178.7797707752574
 20
735.7832509158828
 30
0.0
 10
178.7797707752574
 20
735.7832509158828
 30
0.0
 10
178.7797707752574
 20
735.7832509158828
 30
0.0
 10
178.7797707752574
 20
734.0865761299822
 30
0.0
 10
178.7797707752574
 20
734.0865761299822
 30
0.0
 10
179.5417780400237
 20
735.2468530527699
 30
0.0
 10
181.0680947063085
 20
735.9536090354957
 30
0.0
 10
182.6795904324004
 20
735.9536090354957
 30
0.0
 10
184.0102254748029
 20
735.9536090354957
 30
0.0
 10
185.0277699189911
 20
735.6428205740365
 30
0.0
 10
186.0176887221643
 20
734.6529017708658
 30
0.0
  0
SPLINE
  5
D5
330
C2
100
AcDbEntity
  8
Layer 1
 62
    40
370
    13
100
AcDbSpline
210
0.0
220
0.0
230
1.0
 70
    11
 71
     3
 72
    47
 73
    43
 74
     0
 42
0.0000000001
 43
0.0000000001
 12
1.0
 22
0.0
 32
0.0
 13
1.0
 23
0.0
 33
0.0
 40
0.0
 40
0.0
 40
0.0
 40
0.0
 40
1.0
 40
1.0
 40
1.0
 40
2.0
 40
2.0
 40
2.0
 40
3.0
 40
3.0
 40
3.0
 40
4.0
 40
4.0
 40
4.0
 40
5.0
 40
5.0
 40
5.0
 40
6.0
 40
6.0
 40
6.0
 40
7.0
 40
7.0
 40
7.0
 40
8.0
 40
8.0
 40
8.0
 40
9.0
 40
9.0
 40
9.0
 40
10.0
 40
10.0
 40
10.0
 40
11.0
 40
11.0
 40
11.0
 40
12.0
 40
12.0
 40
12.0
 40
13.0
 40
13.0
 40
13.0
 40
14.0
 40
14.0
 40
14.0
 40
14.0
 10
198.294984018238
 20
731.3171056178533
 30
0.0
 10
198.294984018238
 20
731.3171056178533
 30
0.0
 10
198.294984018238
 20
721.8737406629484
 30
0.0
 10
198.294984018238
 20
721.8737406629484
 30
0.0
 10
198.294984018238
 20
721.8737406629484
 30
0.0
 10
196.259895129861
 20
721.8737406629484
 30
0.0
 10
196.259895129861
 20
721.8737406629484
 30
0.0
 10
196.259895129861
 20
721.8737406629484
 30
0.0
 10
196.259895129861
 20
723.202073568599
 30
0.0
 10
196.259895129861
 20
723.202073568599
 30
0.0
 10
195.1571716258609
 20
722.0993500646027
 30
0.0
 10
194.1096994039004
 20
721.7033825433323
 30
0.0
 10
192.2449686351385
 20
721.7033825433323
 30
0.0
 10
190.3226844475845
 20
721.7033825433323
 30
0.0
 10
189.2752122256243
 20
722.0440987825651
 30
0.0
 10
188.3152212002231
 20
722.9764641669485
 30
0.0
 10
187.6084652174919
 20
723.655594508657
 30
0.0
 10
187.2677489782629
 20
724.7007645938656
 30
0.0
 10
187.2677489782629
 20
725.8034880978619
 30
0.0
 10
187.2677489782629
 20
728.2644722852855
 30
0.0
 10
188.9943515419339
 20
729.8184145925827
 30
0.0
 10
192.1022361565393
 20
729.8184145925827
 30
0.0
 10
192.1022361565393
 20
729.8184145925827
 30
0.0
 10
196.259895129861
 20
729.8184145925827
 30
0.0
 10
196.259895129861
 20
729.8184145925827
 30
0.0
 10
196.259895129861
 20
729.8184145925827
 30
0.0
 10
196.259895129861
 20
731.1467474982333
 30
0.0
 10
196.259895129861
 20
731.1467474982333
 30
0.0
 10
196.259895129861
 20
733.1542107455956
 30
0.0
 10
195.2699763266881
 20
734.2016829675574
 30
0.0
 10
192.6961874384427
 20
734.2016829675574
 30
0.0
 10
190.9442613705039
 20
734.2016829675574
 30
0.0
 10
190.0395216271425
 20
733.7481620274993
 30
0.0
 10
189.1900331658169
 20
732.5901872414655
 30
0.0
 10
189.1900331658169
 20
732.5901872414655
 30
0.0
 10
187.8064489781268
 20
733.8609667283285
 30
0.0
 10
187.8064489781268
 20
733.8609667283285
 30
0.0
 10
189.0219771829499
 20
735.4724624544205
 30
0.0
 10
190.4354891484114
 20
735.9536090354957
 30
0.0
 10
192.7261152162147
 20
735.9536090354957
 30
0.0
 10
196.4855045315108
 20
735.9536090354957
 30
0.0
 10
198.294984018238
 20
734.3144876683828
 30
0.0
 10
198.294984018238
 20
731.3171056178533
 30
0.0
  0
SPLINE
  5
D6
330
C2
100
AcDbEntity
  8
Layer 1
 62
    40
370
    13
100
AcDbSpline
210
0.0
220
0.0
230
1.0
 70
    11
 71
     3
 72
    23
 73
    19
 74
     0
 42
0.0000000001
 43
0.0000000001
 12
1.0
 22
0.0
 32
0.0
 13
1.0
 23
0.0
 33
0.0
 40
0.0
 40
0.0
 40
0.0
 40
0.0
 40
1.0
 40
1.0
 40
1.0
 40
2.0
 40
2.0
 40
2.0
 40
3.0
 40
3.0
 40
3.0
 40
4.0
 40
4.0
 40
4.0
 40
5.0
 40
5.0
 40
5.0
 40
6.0
 40
6.0
 40
6.0
 40
6.0
 10
192.3853989769813
 20
728.2920979262992
 30
0.0
 10
190.2927566698131
 20
728.2920979262992
 30
0.0
 10
189.2475865846042
 20
727.4725372427446
 30
0.0
 10
189.2475865846042
 20
725.8311137388823
 30
0.0
 10
189.2475865846042
 20
724.2196180127903
 30
0.0
 10
190.2375053877771
 20
723.4576107480234
 30
0.0
 10
192.4705780367884
 20
723.4576107480234
 30
0.0
 10
193.6308549595757
 20
723.4576107480234
 30
0.0
 10
194.6483994037684
 20
723.5704154488521
 30
0.0
 10
195.5531391471294
 20
724.3899761324033
 30
0.0
 10
196.0342857282066
 20
724.8434970724613
 30
0.0
 10
196.259895129861
 20
725.633129978249
 30
0.0
 10
196.259895129861
 20
726.7934069010361
 30
0.0
 10
196.259895129861
 20
726.7934069010361
 30
0.0
 10
196.259895129861
 20
728.2920979262992
 30
0.0
 10
196.259895129861
 20
728.2920979262992
 30
0.0
 10
196.259895129861
 20
728.2920979262992
 30
0.0
 10
192.3853989769813
 20
728.2920979262992
 30
0.0
 10
192.3853989769813
 20
728.2920979262992
 30
0.0
  0
SPLINE
  5
D7
330
C2
100
AcDbEntity
  8
Layer 1
 62
    40
370
    13
100
AcDbSpline
210
0.0
220
0.0
230
1.0
 70
    11
 71
     3
 72
    41
 73
    37
 74
     0
 42
0.0000000001
 43
0.0000000001
 12
1.0
 22
0.0
 32
0.0
 13
1.0
 23
0.0
 33
0.0
 40
0.0
 40
0.0
 40
0.0
 40
0.0
 40
1.0
 40
1.0
 40
1.0
 40
2.0
 40
2.0
 40
2.0
 40
3.0
 40
3.0
 40
3.0
 40
4.0
 40
4.0
 40
4.0
 40
5.0
 40
5.0
 40
5.0
 40
6.0
 40
6.0
 40
6.0
 40
7.0
 40
7.0
 40
7.0
 40
8.0
 40
8.0
 40
8.0
 40
9.0
 40
9.0
 40
9.0
 40
10.0
 40
10.0
 40
10.0
 40
11.0
 40
11.0
 40
11.0
 40
12.0
 40
12.0
 40
12.0
 40
12.0
 10
213.2588729033874
 20
733.8908945060989
 30
0.0
 10
213.2588729033874
 20
733.8908945060989
 30
0.0
 10
211.8729865789456
 20
732.5901872414655
 30
0.0
 10
211.8729865789456
 20
732.5901872414655
 30
0.0
 10
210.8278164937374
 20
733.7481620274993
 30
0.0
 10
210.0082558101834
 20
734.1441295487698
 30
0.0
 10
208.6776207677813
 20
734.1441295487698
 30
0.0
 10
207.3216622211116
 20
734.1441295487698
 30
0.0
 10
206.1913130760956
 20
733.6077316856572
 30
0.0
 10
205.4546293155929
 20
732.5602594636952
 30
0.0
 10
204.8054267516535
 20
731.6555197203326
 30
0.0
 10
204.5498895722319
 20
730.5827239941032
 30
0.0
 10
204.5498895722319
 20
728.8284957894156
 30
0.0
 10
204.5498895722319
 20
727.076569721478
 30
0.0
 10
204.8054267516535
 20
726.0014718584952
 30
0.0
 10
205.4546293155929
 20
725.0967321151361
 30
0.0
 10
206.1913130760956
 20
724.0515620299275
 30
0.0
 10
207.3216622211116
 20
723.5128620300575
 30
0.0
 10
208.6776207677813
 20
723.5128620300575
 30
0.0
 10
210.0082558101834
 20
723.5128620300575
 30
0.0
 10
210.8278164937374
 20
723.9387573290984
 30
0.0
 10
211.8729865789456
 20
725.0967321151361
 30
0.0
 10
211.8729865789456
 20
725.0967321151361
 30
0.0
 10
213.2588729033874
 20
723.7683992094856
 30
0.0
 10
213.2588729033874
 20
723.7683992094856
 30
0.0
 10
211.8177352969103
 20
722.212154765428
 30
0.0
 10
210.5999049553349
 20
721.7033825433323
 30
0.0
 10
208.6776207677813
 20
721.7033825433323
 30
0.0
 10
205.171466495151
 20
721.7033825433323
 30
0.0
 10
202.5148006838504
 20
724.0791876709446
 30
0.0
 10
202.5148006838504
 20
728.8284957894156
 30
0.0
 10
202.5148006838504
 20
733.5778039078865
 30
0.0
 10
205.171466495151
 20
735.9536090354957
 30
0.0
 10
208.6776207677813
 20
735.9536090354957
 30
0.0
 10
210.5999049553349
 20
735.9536090354957
 30
0.0
 10
211.8177352969103
 20
735.4448368134032
 30
0.0
 10
213.2588729033874
 20
733.8908945060989
 30
0.0
  0
POLYLINE
  5
D8
330
C2
100
AcDbEntity
  8
Layer 1
 62
    40
370
    13
100
AcDb2dPolyline
 66
     1
 10
0.0
 20
0.0
 30
0.0
  0
VERTEX
  5
D9
330
D8
100
AcDbEntity
  8
Layer 1
 62
    40
370
    13
100
AcDbVertex
100
AcDb2dVertex
 10
219.1753643548998
 20
728.545332968974
 30
0.0
  0
VERTEX
  5
DA
330
D8
100
AcDbEntity
  8
Layer 1
 62
    40
370
    13
100
AcDbVertex
100
AcDb2dVertex
 10
225.4509891396536
 20
735.7832509158828
 30
0.0
  0
VERTEX
  5
DB
330
D8
100
AcDbEntity
  8
Layer 1
 62
    40
370
    13
100
AcDbVertex
100
AcDb2dVertex
 10
227.9948502501312
 20
735.7832509158828
 30
0.0
  0
VERTEX
  5
DC
330
D8
100
AcDbEntity
  8
Layer 1
 62
    40
370
    13
100
AcDbVertex
100
AcDb2dVertex
 10
223.2731677726784
 20
730.4676171565279
 30
0.0
  0
VERTEX
  5
DD
330
D8
100
AcDbEntity
  8
Layer 1
 62
    40
370
    13
100
AcDbVertex
100
AcDb2dVertex
 10
228.8144109336851
 20
721.8737406629484
 30
0.0
  0
VERTEX
  5
DE
330
D8
100
AcDbEntity
  8
Layer 1
 62
    40
370
    13
100
AcDbVertex
100
AcDb2dVertex
 10
226.2981754642273
 20
721.8737406629484
 30
0.0
  0
VERTEX
  5
DF
330
D8
100
AcDbEntity
  8
Layer 1
 62
    40
370
    13
100
AcDbVertex
100
AcDb2dVertex
 10
221.8895835849879
 20
728.998853909032
 30
0.0
  0
VERTEX
  5
E0
330
D8
100
AcDbEntity
  8
Layer 1
 62
    40
370
    13
100
AcDbVertex
100
AcDb2dVertex
 10
219.1753643548998
 20
725.8886671576699
 30
0.0
  0
VERTEX
  5
E1
330
D8
100
AcDbEntity
  8
Layer 1
 62
    40
370
    13
100
AcDbVertex
100
AcDb2dVertex
 10
219.1753643548998
 20
721.8737406629484
 30
0.0
  0
VERTEX
  5
E2
330
D8
100
AcDbEntity
  8
Layer 1
 62
    40
370
    13
100
AcDbVertex
100
AcDb2dVertex
 10
217.137973329767
 20
721.8737406629484
 30
0.0
  0
VERTEX
  5
E3
330
D8
100
AcDbEntity
  8
Layer 1
 62
    40
370
    13
100
AcDbVertex
100
AcDb2dVertex
 10
217.137973329767
 20
742.0036244186
 30
0.0
  0
VERTEX
  5
E4
330
D8
100
AcDbEntity
  8
Layer 1
 62
    40
370
    13
100
AcDbVertex
100
AcDb2dVertex
 10
219.1753643548998
 20
742.0036244186
 30
0.0
  0
VERTEX
  5
E5
330
D8
100
AcDbEntity
  8
Layer 1
 62
    40
370
    13
100
AcDbVertex
100
AcDb2dVertex
 10
219.1753643548998
 20
728.545332968974
 30
0.0
  0
SEQEND
  5
E6
330
D8
100
AcDbEntity
  8
Layer 1
 62
    40
370
    13
  0
SPLINE
  5
E7
330
C2
100
AcDbEntity
  8
Layer 1
 62
    40
370
    13
100
AcDbSpline
210
0.0
220
0.0
230
1.0
 70
    11
 71
     3
 72
    32
 73
    28
 74
     0
 42
0.0000000001
 43
0.0000000001
 12
1.0
 22
0.0
 32
0.0
 13
1.0
 23
0.0
 33
0.0
 40
0.0
 40
0.0
 40
0.0
 40
0.0
 40
1.0
 40
1.0
 40
1.0
 40
2.0
 40
2.0
 40
2.0
 40
3.0
 40
3.0
 40
3.0
 40
4.0
 40
4.0
 40
4.0
 40
5.0
 40
5.0
 40
5.0
 40
6.0
 40
6.0
 40
6.0
 40
7.0
 40
7.0
 40
7.0
 40
8.0
 40
8.0
 40
8.0
 40
9.0
 40
9.0
 40
9.0
 40
9.0
 10
241.8283899902613
 20
729.1968376696656
 30
0.0
 10
241.8283899902613
 20
729.1968376696656
 30
0.0
 10
241.8283899902613
 20
728.2920979262992
 30
0.0
 10
241.8283899902613
 20
728.2920979262992
 30
0.0
 10
241.8283899902613
 20
728.2920979262992
 30
0.0
 10
232.4425784541467
 20
728.2920979262992
 30
0.0
 10
232.4425784541467
 20
728.2920979262992
 30
0.0
 10
232.4425784541467
 20
725.2371624569782
 30
0.0
 10
233.856090419604
 20
723.4852363890403
 30
0.0
 10
236.5426840086762
 20
723.4852363890403
 30
0.0
 10
238.1541797347682
 20
723.4852363890403
 30
0.0
 10
239.0865451191534
 20
723.9663829701155
 30
0.0
 10
240.1892686231493
 20
725.0691064741153
 30
0.0
 10
240.1892686231493
 20
725.0691064741153
 30
0.0
 10
241.5751549475914
 20
723.8535782692938
 30
0.0
 10
241.5751549475914
 20
723.8535782692938
 30
0.0
 10
240.1616429821293
 20
722.440066303832
 30
0.0
 10
238.8333100764793
 20
721.7033825433323
 30
0.0
 10
236.4851305898886
 20
721.7033825433323
 30
0.0
 10
232.7809925566237
 20
721.7033825433323
 30
0.0
 10
230.4074895657655
 20
723.9088295513279
 30
0.0
 10
230.4074895657655
 20
728.8284957894156
 30
0.0
 10
230.4074895657655
 20
733.352194506229
 30
0.0
 10
232.5830087959933
 20
735.9536090354957
 30
0.0
 10
236.1190908463915
 20
735.9536090354957
 30
0.0
 10
239.7380498198448
 20
735.9536090354957
 30
0.0
 10
241.8283899902613
 20
733.3798201472497
 30
0.0
 10
241.8283899902613
 20
729.1968376696656
 30
0.0
  0
SPLINE
  5
E8
330
C2
100
AcDbEntity
  8
Layer 1
 62
    40
370
    13
100
AcDbSpline
210
0.0
220
0.0
230
1.0
 70
    11
 71
     3
 72
    20
 73
    16
 74
     0
 42
0.0000000001
 43
0.0000000001
 12
1.0
 22
0.0
 32
0.0
 13
1.0
 23
0.0
 33
0.0
 40
0.0
 40
0.0
 40
0.0
 40
0.0
 40
1.0
 40
1.0
 40
1.0
 40
2.0
 40
2.0
 40
2.0
 40
3.0
 40
3.0
 40
3.0
 40
4.0
 40
4.0
 40
4.0
 40
5.0
 40
5.0
 40
5.0
 40
5.0
 10
232.8661716164353
 20
732.1366663014074
 30
0.0
 10
232.5277575139541
 20
731.4022846776613
 30
0.0
 10
232.500131872934
 20
730.9487637376033
 30
0.0
 10
232.4425784541467
 20
729.8184145925827
 30
0.0
 10
232.4425784541467
 20
729.8184145925827
 30
0.0
 10
239.8209267429006
 20
729.8184145925827
 30
0.0
 10
239.8209267429006
 20
729.8184145925827
 30
0.0
 10
239.7380498198448
 20
730.9487637376033
 30
0.0
 10
239.7081220420731
 20
731.4022846776613
 30
0.0
 10
239.3697079395954
 20
732.1366663014074
 30
0.0
 10
238.7757566576917
 20
733.4097479250237
 30
0.0
 10
237.6154797349043
 20
734.2293086085747
 30
0.0
 10
236.1190908463915
 20
734.2293086085747
 30
0.0
 10
234.6203998211226
 20
734.2293086085747
 30
0.0
 10
233.4601228983349
 20
733.4097479250237
 30
0.0
 10
232.8661716164353
 20
732.1366663014074
 30
0.0
  0
SPLINE
  5
E9
330
C2
100
AcDbEntity
  8
Layer 1
 62
    40
370
    13
100
AcDbSpline
210
0.0
220
0.0
230
1.0
 70
    11
 71
     3
 72
    53
 73
    49
 74
     0
 42
0.0000000001
 43
0.0000000001
 12
1.0
 22
0.0
 32
0.0
 13
1.0
 23
0.0
 33
0.0
 40
0.0
 40
0.0
 40
0.0
 40
0.0
 40
1.0
 40
1.0
 40
1.0
 40
2.0
 40
2.0
 40
2.0
 40
3.0
 40
3.0
 40
3.0
 40
4.0
 40
4.0
 40
4.0
 40
5.0
 40
5.0
 40
5.0
 40
6.0
 40
6.0
 40
6.0
 40
7.0
 40
7.0
 40
7.0
 40
8.0
 40
8.0
 40
8.0
 40
9.0
 40
9.0
 40
9.0
 40
10.0
 40
10.0
 40
10.0
 40
11.0
 40
11.0
 40
11.0
 40
12.0
 40
12.0
 40
12.0
 40
13.0
 40
13.0
 40
13.0
 40
14.0
 40
14.0
 40
14.0
 40
15.0
 40
15.0
 40
15.0
 40
16.0
 40
16.0
 40
16.0
 40
16.0
 10
248.5391186210602
 20
735.7832509158828
 30
0.0
 10
248.5391186210602
 20
735.7832509158828
 30
0.0
 10
251.5065728938263
 20
735.7832509158828
 30
0.0
 10
251.5065728938263
 20
735.7832509158828
 30
0.0
 10
251.5065728938263
 20
735.7832509158828
 30
0.0
 10
251.5065728938263
 20
734.2293086085747
 30
0.0
 10
251.5065728938263
 20
734.2293086085747
 30
0.0
 10
251.5065728938263
 20
734.2293086085747
 30
0.0
 10
248.5391186210602
 20
734.2293086085747
 30
0.0
 10
248.5391186210602
 20
734.2293086085747
 30
0.0
 10
248.5391186210602
 20
734.2293086085747
 30
0.0
 10
248.5391186210602
 20
725.6630577560194
 30
0.0
 10
248.5391186210602
 20
725.6630577560194
 30
0.0
 10
248.5391186210602
 20
724.362350491386
 30
0.0
 10
249.1330699029636
 20
723.6256667308863
 30
0.0
 10
250.4337771675982
 20
723.6256667308863
 30
0.0
 10
250.4337771675982
 20
723.6256667308863
 30
0.0
 10
251.5065728938263
 20
723.6256667308863
 30
0.0
 10
251.5065728938263
 20
723.6256667308863
 30
0.0
 10
251.5065728938263
 20
723.6256667308863
 30
0.0
 10
251.5065728938263
 20
721.8737406629484
 30
0.0
 10
251.5065728938263
 20
721.8737406629484
 30
0.0
 10
251.5065728938263
 20
721.8737406629484
 30
0.0
 10
250.0654352873485
 20
721.8737406629484
 30
0.0
 10
250.0654352873485
 20
721.8737406629484
 30
0.0
 10
247.6896301597342
 20
721.8737406629484
 30
0.0
 10
246.5040297326829
 20
723.5427898078318
 30
0.0
 10
246.5040297326829
 20
725.6055043372282
 30
0.0
 10
246.5040297326829
 20
725.6055043372282
 30
0.0
 10
246.5040297326829
 20
734.2293086085747
 30
0.0
 10
246.5040297326829
 20
734.2293086085747
 30
0.0
 10
246.5040297326829
 20
734.2293086085747
 30
0.0
 10
244.749801527992
 20
734.2293086085747
 30
0.0
 10
244.749801527992
 20
734.2293086085747
 30
0.0
 10
244.749801527992
 20
734.2293086085747
 30
0.0
 10
244.749801527992
 20
735.7832509158828
 30
0.0
 10
244.749801527992
 20
735.7832509158828
 30
0.0
 10
244.749801527992
 20
735.7832509158828
 30
0.0
 10
246.5040297326829
 20
735.7832509158828
 30
0.0
 10
246.5040297326829
 20
735.7832509158828
 30
0.0
 10
246.5040297326829
 20
735.7832509158828
 30
0.0
 10
246.5040297326829
 20
740.0537145900249
 30
0.0
 10
246.5040297326829
 20
740.0537145900249
 30
0.0
 10
246.5040297326829
 20
740.0537145900249
 30
0.0
 10
248.5391186210602
 20
740.0537145900249
 30
0.0
 10
248.5391186210602
 20
740.0537145900249
 30
0.0
 10
248.5391186210602
 20
740.0537145900249
 30
0.0
 10
248.5391186210602
 20
735.7832509158828
 30
0.0
 10
248.5391186210602
 20
735.7832509158828
 30
0.0
  0
SPLINE
  5
EA
330
C2
100
AcDbEntity
  8
Layer 1
 62
    40
370
    13
100
AcDbSpline
210
0.0
220
0.0
230
1.0
 70
    11
 71
     3
 72
    53
 73
    49
 74
     0
 42
0.0000000001
 43
0.0000000001
 12
1.0
 22
0.0
 32
0.0
 13
1.0
 23
0.0
 33
0.0
 40
0.0
 40
0.0
 40
0.0
 40
0.0
 40
1.0
 40
1.0
 40
1.0
 40
2.0
 40
2.0
 40
2.0
 40
3.0
 40
3.0
 40
3.0
 40
4.0
 40
4.0
 40
4.0
 40
5.0
 40
5.0
 40
5.0
 40
6.0
 40
6.0
 40
6.0
 40
7.0
 40
7.0
 40
7.0
 40
8.0
 40
8.0
 40
8.0
 40
9.0
 40
9.0
 40
9.0
 40
10.0
 40
10.0
 40
10.0
 40
11.0
 40
11.0
 40
11.0
 40
12.0
 40
12.0
 40
12.0
 40
13.0
 40
13.0
 40
13.0
 40
14.0
 40
14.0
 40
14.0
 40
15.0
 40
15.0
 40
15.0
 40
16.0
 40
16.0
 40
16.0
 40
16.0
 10
264.856663916128
 20
734.4549180102323
 30
0.0
 10
264.856663916128
 20
734.4549180102323
 30
0.0
 10
263.5283310104774
 20
733.1265851045823
 30
0.0
 10
263.5283310104774
 20
733.1265851045823
 30
0.0
 10
262.5384122073052
 20
733.8908945060989
 30
0.0
 10
261.2653305836903
 20
734.2293086085747
 30
0.0
 10
259.8241929772125
 20
734.2293086085747
 30
0.0
 10
257.7891040888359
 20
734.2293086085747
 30
0.0
 10
256.7140062258562
 20
733.3798201472497
 30
0.0
 10
256.7140062258562
 20
731.9386825407742
 30
0.0
 10
256.7140062258562
 20
730.6955286949322
 30
0.0
 10
257.4783156273745
 20
730.0739517720114
 30
0.0
 10
259.2026160542932
 20
729.9035936523911
 30
0.0
 10
259.2026160542932
 20
729.9035936523911
 30
0.0
 10
261.3781352845172
 20
729.7056098917575
 30
0.0
 10
261.3781352845172
 20
729.7056098917575
 30
0.0
 10
263.8114938309197
 20
729.4800004901069
 30
0.0
 10
265.4782408390474
 20
728.5752607467408
 30
0.0
 10
265.4782408390474
 20
725.9462205764611
 30
0.0
 10
265.4782408390474
 20
723.2596269873898
 30
0.0
 10
263.217542549016
 20
721.7033825433323
 30
0.0
 10
259.8241929772125
 20
721.7033825433323
 30
0.0
 10
257.4483878496024
 20
721.7033825433323
 30
0.0
 10
255.6112827218558
 20
722.2420825431949
 30
0.0
 10
254.1125916965908
 20
723.7108457906946
 30
0.0
 10
254.1125916965908
 20
723.7108457906946
 30
0.0
 10
255.470852380013
 20
725.0691064741153
 30
0.0
 10
255.470852380013
 20
725.0691064741153
 30
0.0
 10
256.5436481062411
 20
723.9387573290984
 30
0.0
 10
258.0699647725256
 20
723.4576107480234
 30
0.0
 10
259.7965673361973
 20
723.4576107480234
 30
0.0
 10
262.1148190450159
 20
723.4576107480234
 30
0.0
 10
263.4984032327058
 20
724.2771714315779
 30
0.0
 10
263.4984032327058
 20
725.9162927986903
 30
0.0
 10
263.4984032327058
 20
727.1617487812861
 30
0.0
 10
262.8215750277465
 20
727.8109513452242
 30
0.0
 10
261.1801515238829
 20
727.9513816870699
 30
0.0
 10
261.1801515238829
 20
727.9513816870699
 30
0.0
 10
258.8918275928318
 20
728.1493654477032
 30
0.0
 10
258.8918275928318
 20
728.1493654477032
 30
0.0
 10
256.1776083627398
 20
728.3772769861075
 30
0.0
 10
254.7341686195143
 20
729.5651795499153
 30
0.0
 10
254.7341686195143
 20
731.8834312587366
 30
0.0
 10
254.7341686195143
 20
734.4272923692118
 30
0.0
 10
256.8544365676984
 20
735.9536090354957
 30
0.0
 10
259.8518186182324
 20
735.9536090354957
 30
0.0
 10
261.8592818655937
 20
735.9536090354957
 30
0.0
 10
263.5835822925131
 20
735.4724624544205
 30
0.0
 10
264.856663916128
 20
734.4549180102323
 30
0.0
  0
ENDBLK
  5
C5
330
C2
100
AcDbEntity
  8
0
100
AcDbBlockEnd
  0
BLOCK
  5
ED
330
EB
100
AcDbEntity
  8
0
100
AcDbBlockBegin
  2
block 5
 70
     0
 10
0.0
 20
0.0
 30
0.0
  3
block 5
  1

  0
SPLINE
  5
EF
330
EB
100
AcDbEntity
  8
Layer 1
 62
    40
370
    13
100
AcDbSpline
210
0.0
220
0.0
230
1.0
 70
    11
 71
     3
 72
    26
 73
    22
 74
     0
 42
0.0000000001
 43
0.0000000001
 12
1.0
 22
0.0
 32
0.0
 13
1.0
 23
0.0
 33
0.0
 40
0.0
 40
0.0
 40
0.0
 40
0.0
 40
1.0
 40
1.0
 40
1.0
 40
2.0
 40
2.0
 40
2.0
 40
3.0
 40
3.0
 40
3.0
 40
4.0
 40
4.0
 40
4.0
 40
5.0
 40
5.0
 40
5.0
 40
6.0
 40
6.0
 40
6.0
 40
7.0
 40
7.0
 40
7.0
 40
7.0
 10
29.11846380565441
 20
711.0572006143365
 30
0.0
 10
32.66140000268535
 20
711.0572006143365
 30
0.0
 10
35.11861435753979
 20
709.0285561378471
 30
0.0
 10
35.11861435753979
 20
705.6284191486798
 30
0.0
 10
35.11861435753979
 20
703.4853975020801
 30
0.0
 10
33.83290472244455
 20
701.799540026373
 30
0.0
 10
32.11862520898423
 20
701.1709823550892
 30
0.0
 10
34.06148680789088
 20
700.4566418062227
 30
0.0
 10
35.43297932056884
 20
698.7709565852899
 30
0.0
 10
35.43297932056884
 20
696.3421642681888
 30
0.0
 10
35.43297932056884
 20
692.65625660852
 30
0.0
 10
32.97576496571439
 20
690.7133950096134
 30
0.0
 10
29.37564018362831
 20
690.7133950096134
 30
0.0
 10
29.37564018362831
 20
690.7133950096134
 30
0.0
 10
21.46087781581534
 20
690.7133950096134
 30
0.0
 10
21.46087781581534
 20
690.7133950096134
 30
0.0
 10
21.46087781581534
 20
690.7133950096134
 30
0.0
 10
21.46087781581534
 20
711.0572006143365
 30
0.0
 10
21.46087781581534
 20
711.0572006143365
 30
0.0
 10
21.46087781581534
 20
711.0572006143365
 30
0.0
 10
29.11846380565441
 20
711.0572006143365
 30
0.0
 10
29.11846380565441
 20
711.0572006143365
 30
0.0
  0
SPLINE
  5
F0
330
EB
100
AcDbEntity
  8
Layer 1
 62
    40
370
    13
100
AcDbSpline
210
0.0
220
0.0
230
1.0
 70
    11
 71
     3
 72
    20
 73
    16
 74
     0
 42
0.0000000001
 43
0.0000000001
 12
1.0
 22
0.0
 32
0.0
 13
1.0
 23
0.0
 33
0.0
 40
0.0
 40
0.0
 40
0.0
 40
0.0
 40
1.0
 40
1.0
 40
1.0
 40
2.0
 40
2.0
 40
2.0
 40
3.0
 40
3.0
 40
3.0
 40
4.0
 40
4.0
 40
4.0
 40
5.0
 40
5.0
 40
5.0
 40
5.0
 10
23.63249375494257
 20
709.1141667606555
 30
0.0
 10
23.63249375494257
 20
709.1141667606555
 30
0.0
 10
23.63249375494257
 20
702.056716404347
 30
0.0
 10
23.63249375494257
 20
702.056716404347
 30
0.0
 10
23.63249375494257
 20
702.056716404347
 30
0.0
 10
28.94689805048897
 20
702.056716404347
 30
0.0
 10
28.94689805048897
 20
702.056716404347
 30
0.0
 10
31.20429686719893
 20
702.056716404347
 30
0.0
 10
32.94717067318682
 20
703.171032539051
 30
0.0
 10
32.94717067318682
 20
705.5998248561522
 30
0.0
 10
32.94717067318682
 20
708.0284449184791
 30
0.0
 10
31.20429686719893
 20
709.1141667606555
 30
0.0
 10
28.94689805048897
 20
709.1141667606555
 30
0.0
 10
28.94689805048897
 20
709.1141667606555
 30
0.0
 10
23.63249375494257
 20
709.1141667606555
 30
0.0
 10
23.63249375494257
 20
709.1141667606555
 30
0.0
  0
SPLINE
  5
F1
330
EB
100
AcDbEntity
  8
Layer 1
 62
    40
370
    13
100
AcDbSpline
210
0.0
220
0.0
230
1.0
 70
    11
 71
     3
 72
    20
 73
    16
 74
     0
 42
0.0000000001
 43
0.0000000001
 12
1.0
 22
0.0
 32
0.0
 13
1.0
 23
0.0
 33
0.0
 40
0.0
 40
0.0
 40
0.0
 40
0.0
 40
1.0
 40
1.0
 40
1.0
 40
2.0
 40
2.0
 40
2.0
 40
3.0
 40
3.0
 40
3.0
 40
4.0
 40
4.0
 40
4.0
 40
5.0
 40
5.0
 40
5.0
 40
5.0
 10
23.63249375494257
 20
700.1138548054403
 30
0.0
 10
23.63249375494257
 20
700.1138548054403
 30
0.0
 10
23.63249375494257
 20
692.65625660852
 30
0.0
 10
23.63249375494257
 20
692.65625660852
 30
0.0
 10
23.63249375494257
 20
692.65625660852
 30
0.0
 10
29.1754801359353
 20
692.65625660852
 30
0.0
 10
29.1754801359353
 20
692.65625660852
 30
0.0
 10
31.68988307584489
 20
692.65625660852
 30
0.0
 10
33.2613633814416
 20
694.1135319987807
 30
0.0
 10
33.2613633814416
 20
696.399352853244
 30
0.0
 10
33.2613633814416
 20
698.6851737077072
 30
0.0
 10
31.68988307584489
 20
700.1138548054403
 30
0.0
 10
29.1754801359353
 20
700.1138548054403
 30
0.0
 10
29.1754801359353
 20
700.1138548054403
 30
0.0
 10
23.63249375494257
 20
700.1138548054403
 30
0.0
 10
23.63249375494257
 20
700.1138548054403
 30
0.0
  0
SPLINE
  5
F2
330
EB
100
AcDbEntity
  8
Layer 1
 62
    40
370
    13
100
AcDbSpline
210
0.0
220
0.0
230
1.0
 70
    11
 71
     3
 72
    29
 73
    25
 74
     0
 42
0.0000000001
 43
0.0000000001
 12
1.0
 22
0.0
 32
0.0
 13
1.0
 23
0.0
 33
0.0
 40
0.0
 40
0.0
 40
0.0
 40
0.0
 40
1.0
 40
1.0
 40
1.0
 40
2.0
 40
2.0
 40
2.0
 40
3.0
 40
3.0
 40
3.0
 40
4.0
 40
4.0
 40
4.0
 40
5.0
 40
5.0
 40
5.0
 40
6.0
 40
6.0
 40
6.0
 40
7.0
 40
7.0
 40
7.0
 40
8.0
 40
8.0
 40
8.0
 40
8.0
 10
39.06324868815086
 20
696.3135699756613
 30
0.0
 10
39.06324868815086
 20
698.6851737077072
 30
0.0
 10
40.40614690830125
 20
700.2852483058315
 30
0.0
 10
42.12042642176156
 20
701.2567652326719
 30
0.0
 10
40.52035182363728
 20
702.1710935744572
 30
0.0
 10
39.46322427398836
 20
703.6567910024712
 30
0.0
 10
39.46322427398836
 20
705.7712183565434
 30
0.0
 10
39.46322427398836
 20
708.9427732602643
 30
0.0
 10
41.83482800603435
 20
711.2285941147276
 30
0.0
 10
45.06339924003623
 20
711.2285941147276
 30
0.0
 10
48.29214272881239
 20
711.2285941147276
 30
0.0
 10
50.66374646085837
 20
708.9427732602643
 30
0.0
 10
50.66374646085837
 20
705.7712183565434
 30
0.0
 10
50.66374646085837
 20
703.6567910024712
 30
0.0
 10
49.63504094896277
 20
702.1710935744572
 30
0.0
 10
48.03496635083848
 20
701.2567652326719
 30
0.0
 10
49.74941811907306
 20
700.2852483058315
 30
0.0
 10
51.06372204669588
 20
698.6851737077072
 30
0.0
 10
51.06372204669588
 20
696.3135699756613
 30
0.0
 10
51.06372204669588
 20
692.8850109487406
 30
0.0
 10
48.43511419145025
 20
690.5420015092221
 30
0.0
 10
45.06339924003623
 20
690.5420015092221
 30
0.0
 10
41.69185654339648
 20
690.5420015092221
 30
0.0
 10
39.06324868815086
 20
692.8850109487406
 30
0.0
 10
39.06324868815086
 20
696.3135699756613
 30
0.0
  0
SPLINE
  5
F3
330
EB
100
AcDbEntity
  8
Layer 1
 62
    40
370
    13
100
AcDbSpline
210
0.0
220
0.0
230
1.0
 70
    11
 71
     3
 72
    17
 73
    13
 74
     0
 42
0.0000000001
 43
0.0000000001
 12
1.0
 22
0.0
 32
0.0
 13
1.0
 23
0.0
 33
0.0
 40
0.0
 40
0.0
 40
0.0
 40
0.0
 40
1.0
 40
1.0
 40
1.0
 40
2.0
 40
2.0
 40
2.0
 40
3.0
 40
3.0
 40
3.0
 40
4.0
 40
4.0
 40
4.0
 40
4.0
 10
49.00648327767894
 20
696.3421642681888
 30
0.0
 10
49.00648327767894
 20
698.5993908301244
 30
0.0
 10
47.29220376421862
 20
700.3138425983591
 30
0.0
 10
45.06339924003623
 20
700.3138425983591
 30
0.0
 10
42.83476697062812
 20
700.3138425983591
 30
0.0
 10
41.1204874571678
 20
698.5993908301244
 30
0.0
 10
41.1204874571678
 20
696.3421642681888
 30
0.0
 10
41.1204874571678
 20
694.0849377062531
 30
0.0
 10
42.83476697062812
 20
692.3706581927928
 30
0.0
 10
45.06339924003623
 20
692.3706581927928
 30
0.0
 10
47.29220376421862
 20
692.3706581927928
 30
0.0
 10
49.00648327767894
 20
694.0849377062531
 30
0.0
 10
49.00648327767894
 20
696.3421642681888
 30
0.0
  0
SPLINE
  5
F4
330
EB
100
AcDbEntity
  8
Layer 1
 62
    40
370
    13
100
AcDbSpline
210
0.0
220
0.0
230
1.0
 70
    11
 71
     3
 72
    17
 73
    13
 74
     0
 42
0.0000000001
 43
0.0000000001
 12
1.0
 22
0.0
 32
0.0
 13
1.0
 23
0.0
 33
0.0
 40
0.0
 40
0.0
 40
0.0
 40
0.0
 40
1.0
 40
1.0
 40
1.0
 40
2.0
 40
2.0
 40
2.0
 40
3.0
 40
3.0
 40
3.0
 40
4.0
 40
4.0
 40
4.0
 40
4.0
 10
48.60650769184143
 20
705.7426240640158
 30
0.0
 10
48.60650769184143
 20
707.8570514180878
 30
0.0
 10
47.14923230158075
 20
709.399937431157
 30
0.0
 10
45.06339924003623
 20
709.399937431157
 30
0.0
 10
42.97756617849172
 20
709.399937431157
 30
0.0
 10
41.5204630430053
 20
707.8570514180878
 30
0.0
 10
41.5204630430053
 20
705.7426240640158
 30
0.0
 10
41.5204630430053
 20
703.5997746721904
 30
0.0
 10
42.97756617849172
 20
702.1139049894022
 30
0.0
 10
45.06339924003623
 20
702.1139049894022
 30
0.0
 10
47.14923230158075
 20
702.1139049894022
 30
0.0
 10
48.60650769184143
 20
703.5997746721904
 30
0.0
 10
48.60650769184143
 20
705.7426240640158
 30
0.0
  0
SPLINE
  5
F5
330
EB
100
AcDbEntity
  8
Layer 1
 62
    40
370
    13
100
AcDbSpline
210
0.0
220
0.0
230
1.0
 70
    11
 71
     3
 72
    29
 73
    25
 74
     0
 42
0.0000000001
 43
0.0000000001
 12
1.0
 22
0.0
 32
0.0
 13
1.0
 23
0.0
 33
0.0
 40
0.0
 40
0.0
 40
0.0
 40
0.0
 40
1.0
 40
1.0
 40
1.0
 40
2.0
 40
2.0
 40
2.0
 40
3.0
 40
3.0
 40
3.0
 40
4.0
 40
4.0
 40
4.0
 40
5.0
 40
5.0
 40
5.0
 40
6.0
 40
6.0
 40
6.0
 40
7.0
 40
7.0
 40
7.0
 40
8.0
 40
8.0
 40
8.0
 40
8.0
 10
53.97913410108855
 20
696.3135699756613
 30
0.0
 10
53.97913410108855
 20
698.6851737077072
 30
0.0
 10
55.32203232123894
 20
700.2852483058315
 30
0.0
 10
57.03631183469926
 20
701.2567652326719
 30
0.0
 10
55.43623723657497
 20
702.1710935744572
 30
0.0
 10
54.37910968692606
 20
703.6567910024712
 30
0.0
 10
54.37910968692606
 20
705.7712183565434
 30
0.0
 10
54.37910968692606
 20
708.9427732602643
 30
0.0
 10
56.75071341897205
 20
711.2285941147276
 30
0.0
 10
59.97928465297393
 20
711.2285941147276
 30
0.0
 10
63.20802814175008
 20
711.2285941147276
 30
0.0
 10
65.57963187379606
 20
708.9427732602643
 30
0.0
 10
65.57963187379606
 20
705.7712183565434
 30
0.0
 10
65.57963187379606
 20
703.6567910024712
 30
0.0
 10
64.55092636190047
 20
702.1710935744572
 30
0.0
 10
62.95085176377618
 20
701.2567652326719
 30
0.0
 10
64.66530353201075
 20
700.2852483058315
 30
0.0
 10
65.97960745963357
 20
698.6851737077072
 30
0.0
 10
65.97960745963357
 20
696.3135699756613
 30
0.0
 10
65.97960745963357
 20
692.8850109487406
 30
0.0
 10
63.35099960438794
 20
690.5420015092221
 30
0.0
 10
59.97928465297393
 20
690.5420015092221
 30
0.0
 10
56.60774195633418
 20
690.5420015092221
 30
0.0
 10
53.97913410108855
 20
692.8850109487406
 30
0.0
 10
53.97913410108855
 20
696.3135699756613
 30
0.0
  0
SPLINE
  5
F6
330
EB
100
AcDbEntity
  8
Layer 1
 62
    40
370
    13
100
AcDbSpline
210
0.0
220
0.0
230
1.0
 70
    11
 71
     3
 72
    17
 73
    13
 74
     0
 42
0.0000000001
 43
0.0000000001
 12
1.0
 22
0.0
 32
0.0
 13
1.0
 23
0.0
 33
0.0
 40
0.0
 40
0.0
 40
0.0
 40
0.0
 40
1.0
 40
1.0
 40
1.0
 40
2.0
 40
2.0
 40
2.0
 40
3.0
 40
3.0
 40
3.0
 40
4.0
 40
4.0
 40
4.0
 40
4.0
 10
63.92236869061664
 20
696.3421642681888
 30
0.0
 10
63.92236869061664
 20
698.5993908301244
 30
0.0
 10
62.20808917715632
 20
700.3138425983591
 30
0.0
 10
59.97928465297393
 20
700.3138425983591
 30
0.0
 10
57.75065238356581
 20
700.3138425983591
 30
0.0
 10
56.0363728701055
 20
698.5993908301244
 30
0.0
 10
56.0363728701055
 20
696.3421642681888
 30
0.0
 10
56.0363728701055
 20
694.0849377062531
 30
0.0
 10
57.75065238356581
 20
692.3706581927928
 30
0.0
 10
59.97928465297393
 20
692.3706581927928
 30
0.0
 10
62.20808917715632
 20
692.3706581927928
 30
0.0
 10
63.92236869061664
 20
694.0849377062531
 30
0.0
 10
63.92236869061664
 20
696.3421642681888
 30
0.0
  0
SPLINE
  5
F7
330
EB
100
AcDbEntity
  8
Layer 1
 62
    40
370
    13
100
AcDbSpline
210
0.0
220
0.0
230
1.0
 70
    11
 71
     3
 72
    17
 73
    13
 74
     0
 42
0.0000000001
 43
0.0000000001
 12
1.0
 22
0.0
 32
0.0
 13
1.0
 23
0.0
 33
0.0
 40
0.0
 40
0.0
 40
0.0
 40
0.0
 40
1.0
 40
1.0
 40
1.0
 40
2.0
 40
2.0
 40
2.0
 40
3.0
 40
3.0
 40
3.0
 40
4.0
 40
4.0
 40
4.0
 40
4.0
 10
63.52239310477913
 20
705.7426240640158
 30
0.0
 10
63.52239310477913
 20
707.8570514180878
 30
0.0
 10
62.06511771451844
 20
709.399937431157
 30
0.0
 10
59.97928465297393
 20
709.399937431157
 30
0.0
 10
57.89345159142942
 20
709.399937431157
 30
0.0
 10
56.436348455943
 20
707.8570514180878
 30
0.0
 10
56.436348455943
 20
705.7426240640158
 30
0.0
 10
56.436348455943
 20
703.5997746721904
 30
0.0
 10
57.89345159142942
 20
702.1139049894022
 30
0.0
 10
59.97928465297393
 20
702.1139049894022
 30
0.0
 10
62.06511771451844
 20
702.1139049894022
 30
0.0
 10
63.52239310477913
 20
703.5997746721904
 30
0.0
 10
63.52239310477913
 20
705.7426240640158
 30
0.0
  0
ENDBLK
  5
EE
330
EB
100
AcDbEntity
  8
0
100
AcDbBlockEnd
  0
BLOCK
  5
102
330
100
100
AcDbEntity
  8
0
100
AcDbBlockBegin
  2
block 6
 70
     0
 10
0.0
 20
0.0
 30
0.0
  3
block 6
  1

  0
POLYLINE
  5
104
330
100
100
AcDbEntity
  8
Layer 1
 62
    40
370
    13
100
AcDb2dPolyline
 66
     1
 10
0.0
 20
0.0
 30
0.0
  0
VERTEX
  5
105
330
104
100
AcDbEntity
  8
Layer 1
 62
    40
370
    13
100
AcDbVertex
100
AcDb2dVertex
 10
19.01801666503695
 20
565.6257310317422
 30
0.0
  0
VERTEX
  5
106
330
104
100
AcDbEntity
  8
Layer 1
 62
    40
370
    13
100
AcDbVertex
100
AcDb2dVertex
 10
94.01821907955514
 20
565.6257310317422
 30
0.0
  0
VERTEX
  5
107
330
104
100
AcDbEntity
  8
Layer 1
 62
    40
370
    13
100
AcDbVertex
100
AcDb2dVertex
 10
94.01821907955514
 20
250.6258584366099
 30
0.0
  0
VERTEX
  5
108
330
104
100
AcDbEntity
  8
Layer 1
 62
    40
370
    13
100
AcDbVertex
100
AcDb2dVertex
 10
19.01801666503695
 20
250.6258584366099
 30
0.0
  0
VERTEX
  5
109
330
104
100
AcDbEntity
  8
Layer 1
 62
    40
370
    13
100
AcDbVertex
100
AcDb2dVertex
 10
19.01801666503695
 20
565.6257310317422
 30
0.0
  0
SEQEND
  5
10A
330
104
100
AcDbEntity
  8
Layer 1
 62
    40
370
    13
  0
POLYLINE
  5
10B
330
100
100
AcDbEntity
  8
Layer 1
 62
    40
370
    13
100
AcDb2dPolyline
 66
     1
 10
0.0
 20
0.0
 30
0.0
  0
VERTEX
  5
10C
330
10B
100
AcDbEntity
  8
Layer 1
 62
    40
370
    13
100
AcDbVertex
100
AcDb2dVertex
 10
49.51811448320403
 20
492.6257510559602
 30
0.0
  0
VERTEX
  5
10D
330
10B
100
AcDbEntity
  8
Layer 1
 62
    40
370
    13
100
AcDbVertex
100
AcDb2dVertex
 10
49.63066144633778
 20
491.3758704139115
 30
0.0
  0
VERTEX
  5
10E
330
10B
100
AcDbEntity
  8
Layer 1
 62
    40
370
    13
100
AcDbVertex
100
AcDb2dVertex
 10
49.96438353962458
 20
490.1662112616532
 30
0.0
  0
VERTEX
  5
10F
330
10B
100
AcDbEntity
  8
Layer 1
 62
    40
370
    13
100
AcDbVertex
100
AcDb2dVertex
 10
50.50907466768936
 20
489.0355309233942
 30
0.0
  0
VERTEX
  5
110
330
10B
100
AcDbEntity
  8
Layer 1
 62
    40
370
    13
100
AcDbVertex
100
AcDb2dVertex
 10
51.2467342066217
 20
488.020261283891
 30
0.0
  0
VERTEX
  5
111
330
10B
100
AcDbEntity
  8
Layer 1
 62
    40
370
    13
100
AcDbVertex
100
AcDb2dVertex
 10
52.15372018865407
 20
487.1531307502536
 30
0.0
  0
VERTEX
  5
112
330
10B
100
AcDbEntity
  8
Layer 1
 62
    40
370
    13
100
AcDbVertex
100
AcDb2dVertex
 10
53.20111534355715
 20
486.461700086364
 30
0.0
  0
VERTEX
  5
113
330
10B
100
AcDbEntity
  8
Layer 1
 62
    40
370
    13
100
AcDbVertex
100
AcDb2dVertex
 10
54.35505007634158
 20
485.9684916039569
 30
0.0
  0
VERTEX
  5
114
330
10B
100
AcDbEntity
  8
Layer 1
 62
    40
370
    13
100
AcDbVertex
100
AcDb2dVertex
 10
55.57848961054093
 20
485.6890943601032
 30
0.0
  0
VERTEX
  5
115
330
10B
100
AcDbEntity
  8
Layer 1
 62
    40
370
    13
100
AcDbVertex
100
AcDb2dVertex
 10
56.83226751685726
 20
485.6330254310807
 30
0.0
  0
VERTEX
  5
116
330
10B
100
AcDbEntity
  8
Layer 1
 62
    40
370
    13
100
AcDbVertex
100
AcDb2dVertex
 10
58.07581779595176
 20
485.8012752818416
 30
0.0
  0
VERTEX
  5
117
330
10B
100
AcDbEntity
  8
Layer 1
 62
    40
370
    13
100
AcDbVertex
100
AcDb2dVertex
 10
59.26926346758265
 20
486.1893222245615
 30
0.0
  0
VERTEX
  5
118
330
10B
100
AcDbEntity
  8
Layer 1
 62
    40
370
    13
100
AcDbVertex
100
AcDb2dVertex
 10
60.37451469479115
 20
486.7837734505413
 30
0.0
  0
VERTEX
  5
119
330
10B
100
AcDbEntity
  8
Layer 1
 62
    40
370
    13
100
AcDbVertex
100
AcDb2dVertex
 10
61.35559176160316
 20
487.5662407626287
 30
0.0
  0
VERTEX
  5
11A
330
10B
100
AcDbEntity
  8
Layer 1
 62
    40
370
    13
100
AcDbVertex
100
AcDb2dVertex
 10
62.1810797035626
 20
488.5113165816198
 30
0.0
  0
VERTEX
  5
11B
330
10B
100
AcDbEntity
  8
Layer 1
 62
    40
370
    13
100
AcDbVertex
100
AcDb2dVertex
 10
62.82490345421544
 20
489.5886840672446
 30
0.0
  0
VERTEX
  5
11C
330
10B
100
AcDbEntity
  8
Layer 1
 62
    40
370
    13
100
AcDbVertex
100
AcDb2dVertex
 10
63.26587567632742
 20
490.7634616277148
 30
0.0
  0
VERTEX
  5
11D
330
10B
100
AcDbEntity
  8
Layer 1
 62
    40
370
    13
100
AcDbVertex
100
AcDb2dVertex
 10
63.48989301025579
 20
491.9985283591769
 30
0.0
  0
VERTEX
  5
11E
330
10B
100
AcDbEntity
  8
Layer 1
 62
    40
370
    13
100
AcDbVertex
100
AcDb2dVertex
 10
63.48989301025579
 20
493.2533613259856
 30
0.0
  0
VERTEX
  5
11F
330
10B
100
AcDbEntity
  8
Layer 1
 62
    40
370
    13
100
AcDbVertex
100
AcDb2dVertex
 10
63.26587567632742
 20
494.4880835478991
 30
0.0
  0
VERTEX
  5
120
330
10B
100
AcDbEntity
  8
Layer 1
 62
    40
370
    13
100
AcDbVertex
100
AcDb2dVertex
 10
62.82490345421544
 20
495.6631625542242
 30
0.0
  0
VERTEX
  5
121
330
10B
100
AcDbEntity
  8
Layer 1
 62
    40
370
    13
100
AcDbVertex
100
AcDb2dVertex
 10
62.1810797035626
 20
496.7405731035425
 30
0.0
  0
VERTEX
  5
122
330
10B
100
AcDbEntity
  8
Layer 1
 62
    40
370
    13
100
AcDbVertex
100
AcDb2dVertex
 10
61.35559176160316
 20
497.6853044129852
 30
0.0
  0
VERTEX
  5
123
330
10B
100
AcDbEntity
  8
Layer 1
 62
    40
370
    13
100
AcDbVertex
100
AcDb2dVertex
 10
60.37451469479115
 20
498.4677717250726
 30
0.0
  0
VERTEX
  5
124
330
10B
100
AcDbEntity
  8
Layer 1
 62
    40
370
    13
100
AcDbVertex
100
AcDb2dVertex
 10
59.26926346758265
 20
499.062567460601
 30
0.0
  0
VERTEX
  5
125
330
10B
100
AcDbEntity
  8
Layer 1
 62
    40
370
    13
100
AcDbVertex
100
AcDb2dVertex
 10
58.07581779595176
 20
499.4502698937723
 30
0.0
  0
VERTEX
  5
126
330
10B
100
AcDbEntity
  8
Layer 1
 62
    40
370
    13
100
AcDbVertex
100
AcDb2dVertex
 10
56.83226751685726
 20
499.6188642540817
 30
0.0
  0
VERTEX
  5
127
330
10B
100
AcDbEntity
  8
Layer 1
 62
    40
370
    13
100
AcDbVertex
100
AcDb2dVertex
 10
55.57848961054093
 20
499.5624508155107
 30
0.0
  0
VERTEX
  5
128
330
10B
100
AcDbEntity
  8
Layer 1
 62
    40
370
    13
100
AcDbVertex
100
AcDb2dVertex
 10
54.35505007634158
 20
499.2833980812055
 30
0.0
  0
VERTEX
  5
129
330
10B
100
AcDbEntity
  8
Layer 1
 62
    40
370
    13
100
AcDbVertex
100
AcDb2dVertex
 10
53.20111534355715
 20
498.7901895987984
 30
0.0
  0
VERTEX
  5
12A
330
10B
100
AcDbEntity
  8
Layer 1
 62
    40
370
    13
100
AcDbVertex
100
AcDb2dVertex
 10
52.15372018865407
 20
498.0987589349087
 30
0.0
  0
VERTEX
  5
12B
330
10B
100
AcDbEntity
  8
Layer 1
 62
    40
370
    13
100
AcDbVertex
100
AcDb2dVertex
 10
51.2467342066217
 20
497.2316284012713
 30
0.0
  0
VERTEX
  5
12C
330
10B
100
AcDbEntity
  8
Layer 1
 62
    40
370
    13
100
AcDbVertex
100
AcDb2dVertex
 10
50.50907466768936
 20
496.2163587617682
 30
0.0
  0
VERTEX
  5
12D
330
10B
100
AcDbEntity
  8
Layer 1
 62
    40
370
    13
100
AcDbVertex
100
AcDb2dVertex
 10
49.96438353962458
 20
495.0856784235093
 30
0.0
  0
VERTEX
  5
12E
330
10B
100
AcDbEntity
  8
Layer 1
 62
    40
370
    13
100
AcDbVertex
100
AcDb2dVertex
 10
49.63066144633778
 20
493.8756747617024
 30
0.0
  0
VERTEX
  5
12F
330
10B
100
AcDbEntity
  8
Layer 1
 62
    40
370
    13
100
AcDbVertex
100
AcDb2dVertex
 10
49.51811448320403
 20
492.6257510559602
 30
0.0
  0
SEQEND
  5
130
330
10B
100
AcDbEntity
  8
Layer 1
 62
    40
370
    13
  0
POLYLINE
  5
131
330
100
100
AcDbEntity
  8
Layer 1
 62
    40
370
    13
100
AcDb2dPolyline
 66
     1
 10
0.0
 20
0.0
 30
0.0
  0
VERTEX
  5
132
330
131
100
AcDbEntity
  8
Layer 1
 62
    40
370
    13
100
AcDbVertex
100
AcDb2dVertex
 10
49.51811448320403
 20
542.626015190053
 30
0.0
  0
VERTEX
  5
133
330
131
100
AcDbEntity
  8
Layer 1
 62
    40
370
    13
100
AcDbVertex
100
AcDb2dVertex
 10
49.63066144633778
 20
541.3761345480043
 30
0.0
  0
VERTEX
  5
134
330
131
100
AcDbEntity
  8
Layer 1
 62
    40
370
    13
100
AcDbVertex
100
AcDb2dVertex
 10
49.96438353962458
 20
540.1664323320524
 30
0.0
  0
VERTEX
  5
135
330
131
100
AcDbEntity
  8
Layer 1
 62
    40
370
    13
100
AcDbVertex
100
AcDb2dVertex
 10
50.50907466768936
 20
539.0354505479385
 30
0.0
  0
VERTEX
  5
136
330
131
100
AcDbEntity
  8
Layer 1
 62
    40
370
    13
100
AcDbVertex
100
AcDb2dVertex
 10
51.2467342066217
 20
538.0205254179839
 30
0.0
  0
VERTEX
  5
137
330
131
100
AcDbEntity
  8
Layer 1
 62
    40
370
    13
100
AcDbVertex
100
AcDb2dVertex
 10
52.15372018865407
 20
537.1530073111044
 30
0.0
  0
VERTEX
  5
138
330
131
100
AcDbEntity
  8
Layer 1
 62
    40
370
    13
100
AcDbVertex
100
AcDb2dVertex
 10
53.20111534355715
 20
536.4615766472148
 30
0.0
  0
VERTEX
  5
139
330
131
100
AcDbEntity
  8
Layer 1
 62
    40
370
    13
100
AcDbVertex
100
AcDb2dVertex
 10
54.35505007634158
 20
535.9684112285013
 30
0.0
  0
VERTEX
  5
13A
330
131
100
AcDbEntity
  8
Layer 1
 62
    40
370
    13
100
AcDbVertex
100
AcDb2dVertex
 10
55.57848961054093
 20
535.689358494196
 30
0.0
  0
VERTEX
  5
13B
330
131
100
AcDbEntity
  8
Layer 1
 62
    40
370
    13
100
AcDbVertex
100
AcDb2dVertex
 10
56.83226751685726
 20
535.6329019919315
 30
0.0
  0
VERTEX
  5
13C
330
131
100
AcDbEntity
  8
Layer 1
 62
    40
370
    13
100
AcDbVertex
100
AcDb2dVertex
 10
58.07581779595176
 20
535.8015394159345
 30
0.0
  0
VERTEX
  5
13D
330
131
100
AcDbEntity
  8
Layer 1
 62
    40
370
    13
100
AcDbVertex
100
AcDb2dVertex
 10
59.26926346758265
 20
536.1892418491058
 30
0.0
  0
VERTEX
  5
13E
330
131
100
AcDbEntity
  8
Layer 1
 62
    40
370
    13
100
AcDbVertex
100
AcDb2dVertex
 10
60.37451469479115
 20
536.7840375846341
 30
0.0
  0
VERTEX
  5
13F
330
131
100
AcDbEntity
  8
Layer 1
 62
    40
370
    13
100
AcDbVertex
100
AcDb2dVertex
 10
61.35559176160316
 20
537.5664618330279
 30
0.0
  0
VERTEX
  5
140
330
131
100
AcDbEntity
  8
Layer 1
 62
    40
370
    13
100
AcDbVertex
100
AcDb2dVertex
 10
62.1810797035626
 20
538.5115807157126
 30
0.0
  0
VERTEX
  5
141
330
131
100
AcDbEntity
  8
Layer 1
 62
    40
370
    13
100
AcDbVertex
100
AcDb2dVertex
 10
62.82490345421544
 20
539.5886036917889
 30
0.0
  0
VERTEX
  5
142
330
131
100
AcDbEntity
  8
Layer 1
 62
    40
370
    13
100
AcDbVertex
100
AcDb2dVertex
 10
63.26587567632742
 20
540.7637257618076
 30
0.0
  0
VERTEX
  5
143
330
131
100
AcDbEntity
  8
Layer 1
 62
    40
370
    13
100
AcDbVertex
100
AcDb2dVertex
 10
63.48989301025579
 20
541.9984479837211
 30
0.0
  0
VERTEX
  5
144
330
131
100
AcDbEntity
  8
Layer 1
 62
    40
370
    13
100
AcDbVertex
100
AcDb2dVertex
 10
63.48989301025579
 20
543.2532378868362
 30
0.0
  0
VERTEX
  5
145
330
131
100
AcDbEntity
  8
Layer 1
 62
    40
370
    13
100
AcDbVertex
100
AcDb2dVertex
 10
63.26587567632742
 20
544.4883476819919
 30
0.0
  0
VERTEX
  5
146
330
131
100
AcDbEntity
  8
Layer 1
 62
    40
370
    13
100
AcDbVertex
100
AcDb2dVertex
 10
62.82490345421544
 20
545.6630821787685
 30
0.0
  0
VERTEX
  5
147
330
131
100
AcDbEntity
  8
Layer 1
 62
    40
370
    13
100
AcDbVertex
100
AcDb2dVertex
 10
62.1810797035626
 20
546.7404496643933
 30
0.0
  0
VERTEX
  5
148
330
131
100
AcDbEntity
  8
Layer 1
 62
    40
370
    13
100
AcDbVertex
100
AcDb2dVertex
 10
61.35559176160316
 20
547.685568547078
 30
0.0
  0
VERTEX
  5
149
330
131
100
AcDbEntity
  8
Layer 1
 62
    40
370
    13
100
AcDbVertex
100
AcDb2dVertex
 10
60.37451469479115
 20
548.4680358591654
 30
0.0
  0
VERTEX
  5
14A
330
131
100
AcDbEntity
  8
Layer 1
 62
    40
370
    13
100
AcDbVertex
100
AcDb2dVertex
 10
59.26926346758265
 20
549.0624440214517
 30
0.0
  0
VERTEX
  5
14B
330
131
100
AcDbEntity
  8
Layer 1
 62
    40
370
    13
100
AcDbVertex
100
AcDb2dVertex
 10
58.07581779595176
 20
549.4504909641715
 30
0.0
  0
VERTEX
  5
14C
330
131
100
AcDbEntity
  8
Layer 1
 62
    40
370
    13
100
AcDbVertex
100
AcDb2dVertex
 10
56.83226751685726
 20
549.618783878626
 30
0.0
  0
VERTEX
  5
14D
330
131
100
AcDbEntity
  8
Layer 1
 62
    40
370
    13
100
AcDbVertex
100
AcDb2dVertex
 10
55.57848961054093
 20
549.5626718859099
 30
0.0
  0
VERTEX
  5
14E
330
131
100
AcDbEntity
  8
Layer 1
 62
    40
370
    13
100
AcDbVertex
100
AcDb2dVertex
 10
54.35505007634158
 20
549.2832746420562
 30
0.0
  0
VERTEX
  5
14F
330
131
100
AcDbEntity
  8
Layer 1
 62
    40
370
    13
100
AcDbVertex
100
AcDb2dVertex
 10
53.20111534355715
 20
548.7901092233427
 30
0.0
  0
VERTEX
  5
150
330
131
100
AcDbEntity
  8
Layer 1
 62
    40
370
    13
100
AcDbVertex
100
AcDb2dVertex
 10
52.15372018865407
 20
548.098678559453
 30
0.0
  0
VERTEX
  5
151
330
131
100
AcDbEntity
  8
Layer 1
 62
    40
370
    13
100
AcDbVertex
100
AcDb2dVertex
 10
51.2467342066217
 20
547.2315480258156
 30
0.0
  0
VERTEX
  5
152
330
131
100
AcDbEntity
  8
Layer 1
 62
    40
370
    13
100
AcDbVertex
100
AcDb2dVertex
 10
50.50907466768936
 20
546.216235322619
 30
0.0
  0
VERTEX
  5
153
330
131
100
AcDbEntity
  8
Layer 1
 62
    40
370
    13
100
AcDbVertex
100
AcDb2dVertex
 10
49.96438353962458
 20
545.0855980480535
 30
0.0
  0
VERTEX
  5
154
330
131
100
AcDbEntity
  8
Layer 1
 62
    40
370
    13
100
AcDbVertex
100
AcDb2dVertex
 10
49.63066144633778
 20
543.8758958321016
 30
0.0
  0
VERTEX
  5
155
330
131
100
AcDbEntity
  8
Layer 1
 62
    40
370
    13
100
AcDbVertex
100
AcDb2dVertex
 10
49.51811448320403
 20
542.626015190053
 30
0.0
  0
SEQEND
  5
156
330
131
100
AcDbEntity
  8
Layer 1
 62
    40
370
    13
  0
POLYLINE
  5
157
330
100
100
AcDbEntity
  8
Layer 1
 62
    40
370
    13
100
AcDb2dPolyline
 66
     1
 10
0.0
 20
0.0
 30
0.0
  0
VERTEX
  5
158
330
157
100
AcDbEntity
  8
Layer 1
 62
    40
370
    13
100
AcDbVertex
100
AcDb2dVertex
 10
63.51812126138805
 20
323.6258168805452
 30
0.0
  0
VERTEX
  5
159
330
157
100
AcDbEntity
  8
Layer 1
 62
    40
370
    13
100
AcDbVertex
100
AcDb2dVertex
 10
63.4055742982543
 20
324.8756975225938
 30
0.0
  0
VERTEX
  5
15A
330
157
100
AcDbEntity
  8
Layer 1
 62
    40
370
    13
100
AcDbVertex
100
AcDb2dVertex
 10
63.07185220496751
 20
326.085378206699
 30
0.0
  0
VERTEX
  5
15B
330
157
100
AcDbEntity
  8
Layer 1
 62
    40
370
    13
100
AcDbVertex
100
AcDb2dVertex
 10
62.52716107690272
 20
327.2160370131112
 30
0.0
  0
VERTEX
  5
15C
330
157
100
AcDbEntity
  8
Layer 1
 62
    40
370
    13
100
AcDbVertex
100
AcDb2dVertex
 10
61.78950153797039
 20
328.2313281844611
 30
0.0
  0
VERTEX
  5
15D
330
157
100
AcDbEntity
  8
Layer 1
 62
    40
370
    13
100
AcDbVertex
100
AcDb2dVertex
 10
60.88251555593801
 20
329.098803227647
 30
0.0
  0
VERTEX
  5
15E
330
157
100
AcDbEntity
  8
Layer 1
 62
    40
370
    13
100
AcDbVertex
100
AcDb2dVertex
 10
59.83512040103493
 20
329.7902554233834
 30
0.0
  0
VERTEX
  5
15F
330
157
100
AcDbEntity
  8
Layer 1
 62
    40
370
    13
100
AcDbVertex
100
AcDb2dVertex
 10
58.68116413640372
 20
330.2834423739437
 30
0.0
  0
VERTEX
  5
160
330
157
100
AcDbEntity
  8
Layer 1
 62
    40
370
    13
100
AcDbVertex
100
AcDb2dVertex
 10
57.45774613405116
 20
330.5624735764022
 30
0.0
  0
VERTEX
  5
161
330
157
100
AcDbEntity
  8
Layer 1
 62
    40
370
    13
100
AcDbVertex
100
AcDb2dVertex
 10
56.20396822773483
 20
330.6189300786667
 30
0.0
  0
VERTEX
  5
162
330
157
100
AcDbEntity
  8
Layer 1
 62
    40
370
    13
100
AcDbVertex
100
AcDb2dVertex
 10
54.96041794864033
 20
330.4502926546637
 30
0.0
  0
VERTEX
  5
163
330
157
100
AcDbEntity
  8
Layer 1
 62
    40
370
    13
100
AcDbVertex
100
AcDb2dVertex
 10
53.76697227700944
 20
330.0625902214924
 30
0.0
  0
VERTEX
  5
164
330
157
100
AcDbEntity
  8
Layer 1
 62
    40
370
    13
100
AcDbVertex
100
AcDb2dVertex
 10
52.66172104980094
 20
329.4678160178108
 30
0.0
  0
VERTEX
  5
165
330
157
100
AcDbEntity
  8
Layer 1
 62
    40
370
    13
100
AcDbVertex
100
AcDb2dVertex
 10
51.68064398298892
 20
328.6853487057235
 30
0.0
  0
VERTEX
  5
166
330
157
100
AcDbEntity
  8
Layer 1
 62
    40
370
    13
100
AcDbVertex
100
AcDb2dVertex
 10
50.85515604102949
 20
327.7402513548855
 30
0.0
  0
VERTEX
  5
167
330
157
100
AcDbEntity
  8
Layer 1
 62
    40
370
    13
100
AcDbVertex
100
AcDb2dVertex
 10
50.21133229037665
 20
326.6632283788093
 30
0.0
  0
VERTEX
  5
168
330
157
100
AcDbEntity
  8
Layer 1
 62
    40
370
    13
100
AcDbVertex
100
AcDb2dVertex
 10
49.77036006826467
 20
325.4881278406373
 30
0.0
  0
VERTEX
  5
169
330
157
100
AcDbEntity
  8
Layer 1
 62
    40
370
    13
100
AcDbVertex
100
AcDb2dVertex
 10
49.54634273433629
 20
324.2534056187238
 30
0.0
  0
VERTEX
  5
16A
330
157
100
AcDbEntity
  8
Layer 1
 62
    40
370
    13
100
AcDbVertex
100
AcDb2dVertex
 10
49.54634273433629
 20
322.9985726519151
 30
0.0
  0
VERTEX
  5
16B
330
157
100
AcDbEntity
  8
Layer 1
 62
    40
370
    13
100
AcDbVertex
100
AcDb2dVertex
 10
49.77036006826467
 20
321.763505920453
 30
0.0
  0
VERTEX
  5
16C
330
157
100
AcDbEntity
  8
Layer 1
 62
    40
370
    13
100
AcDbVertex
100
AcDb2dVertex
 10
50.21133229037665
 20
320.5887498918297
 30
0.0
  0
VERTEX
  5
16D
330
157
100
AcDbEntity
  8
Layer 1
 62
    40
370
    13
100
AcDbVertex
100
AcDb2dVertex
 10
50.85515604102949
 20
319.5113608743581
 30
0.0
  0
VERTEX
  5
16E
330
157
100
AcDbEntity
  8
Layer 1
 62
    40
370
    13
100
AcDbVertex
100
AcDb2dVertex
 10
51.68064398298892
 20
318.5662635235201
 30
0.0
  0
VERTEX
  5
16F
330
157
100
AcDbEntity
  8
Layer 1
 62
    40
370
    13
100
AcDbVertex
100
AcDb2dVertex
 10
52.66172104980094
 20
317.7838177432796
 30
0.0
  0
VERTEX
  5
170
330
157
100
AcDbEntity
  8
Layer 1
 62
    40
370
    13
100
AcDbVertex
100
AcDb2dVertex
 10
53.76697227700944
 20
317.1893880491465
 30
0.0
  0
VERTEX
  5
171
330
157
100
AcDbEntity
  8
Layer 1
 62
    40
370
    13
100
AcDbVertex
100
AcDb2dVertex
 10
54.96041794864033
 20
316.8013195745799
 30
0.0
  0
VERTEX
  5
172
330
157
100
AcDbEntity
  8
Layer 1
 62
    40
370
    13
100
AcDbVertex
100
AcDb2dVertex
 10
56.20396822773483
 20
316.6330481919722
 30
0.0
  0
VERTEX
  5
173
330
157
100
AcDbEntity
  8
Layer 1
 62
    40
370
    13
100
AcDbVertex
100
AcDb2dVertex
 10
57.45774613405116
 20
316.6891386528415
 30
0.0
  0
VERTEX
  5
174
330
157
100
AcDbEntity
  8
Layer 1
 62
    40
370
    13
100
AcDbVertex
100
AcDb2dVertex
 10
58.68116413640372
 20
316.9685358966952
 30
0.0
  0
VERTEX
  5
175
330
157
100
AcDbEntity
  8
Layer 1
 62
    40
370
    13
100
AcDbVertex
100
AcDb2dVertex
 10
59.83512040103493
 20
317.4617228472555
 30
0.0
  0
VERTEX
  5
176
330
157
100
AcDbEntity
  8
Layer 1
 62
    40
370
    13
100
AcDbVertex
100
AcDb2dVertex
 10
60.88251555593801
 20
318.1531750429919
 30
0.0
  0
VERTEX
  5
177
330
157
100
AcDbEntity
  8
Layer 1
 62
    40
370
    13
100
AcDbVertex
100
AcDb2dVertex
 10
61.78950153797039
 20
319.0203055766293
 30
0.0
  0
VERTEX
  5
178
330
157
100
AcDbEntity
  8
Layer 1
 62
    40
370
    13
100
AcDbVertex
100
AcDb2dVertex
 10
62.52716107690272
 20
320.0355967479792
 30
0.0
  0
VERTEX
  5
179
330
157
100
AcDbEntity
  8
Layer 1
 62
    40
370
    13
100
AcDbVertex
100
AcDb2dVertex
 10
63.07185220496751
 20
321.1662340225446
 30
0.0
  0
VERTEX
  5
17A
330
157
100
AcDbEntity
  8
Layer 1
 62
    40
370
    13
100
AcDbVertex
100
AcDb2dVertex
 10
63.4055742982543
 20
322.3759147066498
 30
0.0
  0
VERTEX
  5
17B
330
157
100
AcDbEntity
  8
Layer 1
 62
    40
370
    13
100
AcDbVertex
100
AcDb2dVertex
 10
63.51812126138805
 20
323.6258168805452
 30
0.0
  0
SEQEND
  5
17C
330
157
100
AcDbEntity
  8
Layer 1
 62
    40
370
    13
  0
POLYLINE
  5
17D
330
100
100
AcDbEntity
  8
Layer 1
 62
    40
370
    13
100
AcDb2dPolyline
 66
     1
 10
0.0
 20
0.0
 30
0.0
  0
VERTEX
  5
17E
330
17D
100
AcDbEntity
  8
Layer 1
 62
    40
370
    13
100
AcDbVertex
100
AcDb2dVertex
 10
63.51812126138805
 20
273.6259187878477
 30
0.0
  0
VERTEX
  5
17F
330
17D
100
AcDbEntity
  8
Layer 1
 62
    40
370
    13
100
AcDbVertex
100
AcDb2dVertex
 10
63.4055742982543
 20
274.8757994298963
 30
0.0
  0
VERTEX
  5
180
330
17D
100
AcDbEntity
  8
Layer 1
 62
    40
370
    13
100
AcDbVertex
100
AcDb2dVertex
 10
63.07185220496751
 20
276.0854801140015
 30
0.0
  0
VERTEX
  5
181
330
17D
100
AcDbEntity
  8
Layer 1
 62
    40
370
    13
100
AcDbVertex
100
AcDb2dVertex
 10
62.52716107690272
 20
277.2161173885669
 30
0.0
  0
VERTEX
  5
182
330
17D
100
AcDbEntity
  8
Layer 1
 62
    40
370
    13
100
AcDbVertex
100
AcDb2dVertex
 10
61.78950153797039
 20
278.2314300917636
 30
0.0
  0
VERTEX
  5
183
330
17D
100
AcDbEntity
  8
Layer 1
 62
    40
370
    13
100
AcDbVertex
100
AcDb2dVertex
 10
60.88251555593801
 20
279.0985390935542
 30
0.0
  0
VERTEX
  5
184
330
17D
100
AcDbEntity
  8
Layer 1
 62
    40
370
    13
100
AcDbVertex
100
AcDb2dVertex
 10
59.83512040103493
 20
279.7899912892906
 30
0.0
  0
VERTEX
  5
185
330
17D
100
AcDbEntity
  8
Layer 1
 62
    40
370
    13
100
AcDbVertex
100
AcDb2dVertex
 10
58.68116413640372
 20
280.2831782398509
 30
0.0
  0
VERTEX
  5
186
330
17D
100
AcDbEntity
  8
Layer 1
 62
    40
370
    13
100
AcDbVertex
100
AcDb2dVertex
 10
57.45774613405116
 20
280.5625754837047
 30
0.0
  0
VERTEX
  5
187
330
17D
100
AcDbEntity
  8
Layer 1
 62
    40
370
    13
100
AcDbVertex
100
AcDb2dVertex
 10
56.20396822773483
 20
280.6190319859692
 30
0.0
  0
VERTEX
  5
188
330
17D
100
AcDbEntity
  8
Layer 1
 62
    40
370
    13
100
AcDbVertex
100
AcDb2dVertex
 10
54.96041794864033
 20
280.4503945619662
 30
0.0
  0
VERTEX
  5
189
330
17D
100
AcDbEntity
  8
Layer 1
 62
    40
370
    13
100
AcDbVertex
100
AcDb2dVertex
 10
53.76697227700944
 20
280.0626921287949
 30
0.0
  0
VERTEX
  5
18A
330
17D
100
AcDbEntity
  8
Layer 1
 62
    40
370
    13
100
AcDbVertex
100
AcDb2dVertex
 10
52.66172104980094
 20
279.4679179251133
 30
0.0
  0
VERTEX
  5
18B
330
17D
100
AcDbEntity
  8
Layer 1
 62
    40
370
    13
100
AcDbVertex
100
AcDb2dVertex
 10
51.68064398298892
 20
278.685450613026
 30
0.0
  0
VERTEX
  5
18C
330
17D
100
AcDbEntity
  8
Layer 1
 62
    40
370
    13
100
AcDbVertex
100
AcDb2dVertex
 10
50.85515604102949
 20
277.740353262188
 30
0.0
  0
VERTEX
  5
18D
330
17D
100
AcDbEntity
  8
Layer 1
 62
    40
370
    13
100
AcDbVertex
100
AcDb2dVertex
 10
50.21133229037665
 20
276.6629642447165
 30
0.0
  0
VERTEX
  5
18E
330
17D
100
AcDbEntity
  8
Layer 1
 62
    40
370
    13
100
AcDbVertex
100
AcDb2dVertex
 10
49.77036006826467
 20
275.4882297479398
 30
0.0
  0
VERTEX
  5
18F
330
17D
100
AcDbEntity
  8
Layer 1
 62
    40
370
    13
100
AcDbVertex
100
AcDb2dVertex
 10
49.54634273433629
 20
274.2535075260263
 30
0.0
  0
VERTEX
  5
190
330
17D
100
AcDbEntity
  8
Layer 1
 62
    40
370
    13
100
AcDbVertex
100
AcDb2dVertex
 10
49.54634273433629
 20
272.9983085178223
 30
0.0
  0
VERTEX
  5
191
330
17D
100
AcDbEntity
  8
Layer 1
 62
    40
370
    13
100
AcDbVertex
100
AcDb2dVertex
 10
49.77036006826467
 20
271.7635862959087
 30
0.0
  0
VERTEX
  5
192
330
17D
100
AcDbEntity
  8
Layer 1
 62
    40
370
    13
100
AcDbVertex
100
AcDb2dVertex
 10
50.21133229037665
 20
270.5888517991322
 30
0.0
  0
VERTEX
  5
193
330
17D
100
AcDbEntity
  8
Layer 1
 62
    40
370
    13
100
AcDbVertex
100
AcDb2dVertex
 10
50.85515604102949
 20
269.5114627816606
 30
0.0
  0
VERTEX
  5
194
330
17D
100
AcDbEntity
  8
Layer 1
 62
    40
370
    13
100
AcDbVertex
100
AcDb2dVertex
 10
51.68064398298892
 20
268.5663654308227
 30
0.0
  0
VERTEX
  5
195
330
17D
100
AcDbEntity
  8
Layer 1
 62
    40
370
    13
100
AcDbVertex
100
AcDb2dVertex
 10
52.66172104980094
 20
267.7838981187353
 30
0.0
  0
VERTEX
  5
196
330
17D
100
AcDbEntity
  8
Layer 1
 62
    40
370
    13
100
AcDbVertex
100
AcDb2dVertex
 10
53.76697227700944
 20
267.1891239150537
 30
0.0
  0
VERTEX
  5
197
330
17D
100
AcDbEntity
  8
Layer 1
 62
    40
370
    13
100
AcDbVertex
100
AcDb2dVertex
 10
54.96041794864033
 20
266.8014214818824
 30
0.0
  0
VERTEX
  5
198
330
17D
100
AcDbEntity
  8
Layer 1
 62
    40
370
    13
100
AcDbVertex
100
AcDb2dVertex
 10
56.20396822773483
 20
266.6327840578794
 30
0.0
  0
VERTEX
  5
199
330
17D
100
AcDbEntity
  8
Layer 1
 62
    40
370
    13
100
AcDbVertex
100
AcDb2dVertex
 10
57.45774613405116
 20
266.689240560144
 30
0.0
  0
VERTEX
  5
19A
330
17D
100
AcDbEntity
  8
Layer 1
 62
    40
370
    13
100
AcDbVertex
100
AcDb2dVertex
 10
58.68116413640372
 20
266.9686378039977
 30
0.0
  0
VERTEX
  5
19B
330
17D
100
AcDbEntity
  8
Layer 1
 62
    40
370
    13
100
AcDbVertex
100
AcDb2dVertex
 10
59.83512040103493
 20
267.461824754558
 30
0.0
  0
VERTEX
  5
19C
330
17D
100
AcDbEntity
  8
Layer 1
 62
    40
370
    13
100
AcDbVertex
100
AcDb2dVertex
 10
60.88251555593801
 20
268.1529109088991
 30
0.0
  0
VERTEX
  5
19D
330
17D
100
AcDbEntity
  8
Layer 1
 62
    40
370
    13
100
AcDbVertex
100
AcDb2dVertex
 10
61.78950153797039
 20
269.020385952085
 30
0.0
  0
VERTEX
  5
19E
330
17D
100
AcDbEntity
  8
Layer 1
 62
    40
370
    13
100
AcDbVertex
100
AcDb2dVertex
 10
62.52716107690272
 20
270.0356986552817
 30
0.0
  0
VERTEX
  5
19F
330
17D
100
AcDbEntity
  8
Layer 1
 62
    40
370
    13
100
AcDbVertex
100
AcDb2dVertex
 10
63.07185220496751
 20
271.1663359298472
 30
0.0
  0
VERTEX
  5
1A0
330
17D
100
AcDbEntity
  8
Layer 1
 62
    40
370
    13
100
AcDbVertex
100
AcDb2dVertex
 10
63.4055742982543
 20
272.3760166139523
 30
0.0
  0
VERTEX
  5
1A1
330
17D
100
AcDbEntity
  8
Layer 1
 62
    40
370
    13
100
AcDbVertex
100
AcDb2dVertex
 10
63.51812126138805
 20
273.6259187878477
 30
0.0
  0
SEQEND
  5
1A2
330
17D
100
AcDbEntity
  8
Layer 1
 62
    40
370
    13
  0
ENDBLK
  5
103
330
100
100
AcDbEntity
  8
0
100
AcDbBlockEnd
  0
BLOCK
  5
1B3
330
1B1
100
AcDbEntity
  8
0
100
AcDbBlockBegin
  2
block 7
 70
     0
 10
0.0
 20
0.0
 30
0.0
  3
block 7
  1

  0
POLYLINE
  5
1B5
330
1B1
100
AcDbEntity
  8
Layer 1
 62
    40
370
    13
100
AcDb2dPolyline
 66
     1
 10
0.0
 20
0.0
 30
0.0
  0
VERTEX
  5
1B6
330
1B5
100
AcDbEntity
  8
Layer 1
 62
    40
370
    13
100
AcDbVertex
100
AcDb2dVertex
 10
314.7980245256623
 20
300.8895216523968
 30
0.0
  0
VERTEX
  5
1B7
330
1B5
100
AcDbEntity
  8
Layer 1
 62
    40
370
    13
100
AcDbVertex
100
AcDb2dVertex
 10
314.7317064375712
 20
300.594965988408
 30
0.0
  0
VERTEX
  5
1B8
330
1B5
100
AcDbEntity
  8
Layer 1
 62
    40
370
    13
100
AcDbVertex
100
AcDb2dVertex
 10
314.6364495474041
 20
299.534867043903
 30
0.0
  0
VERTEX
  5
1B9
330
1B5
100
AcDbEntity
  8
Layer 1
 62
    40
370
    13
100
AcDbVertex
100
AcDb2dVertex
 10
314.7317064375712
 20
298.3650418081929
 30
0.0
  0
VERTEX
  5
1BA
330
1B5
100
AcDbEntity
  8
Layer 1
 62
    40
370
    13
100
AcDbVertex
100
AcDb2dVertex
 10
315.0132138024097
 20
297.1299750767308
 30
0.0
  0
VERTEX
  5
1BB
330
1B5
100
AcDbEntity
  8
Layer 1
 62
    40
370
    13
100
AcDbVertex
100
AcDb2dVertex
 10
315.4707655465444
 20
295.8779627818507
 30
0.0
  0
VERTEX
  5
1BC
330
1B5
100
AcDbEntity
  8
Layer 1
 62
    40
370
    13
100
AcDbVertex
100
AcDb2dVertex
 10
316.086361046065
 20
294.6562888590875
 30
0.0
  0
VERTEX
  5
1BD
330
1B5
100
AcDbEntity
  8
Layer 1
 62
    40
370
    13
100
AcDbVertex
100
AcDb2dVertex
 10
316.8363583332039
 20
293.5125817535249
 30
0.0
  0
VERTEX
  5
1BE
330
1B5
100
AcDbEntity
  8
Layer 1
 62
    40
370
    13
100
AcDbVertex
100
AcDb2dVertex
 10
317.6922061791271
 20
292.490249668277
 30
0.0
  0
VERTEX
  5
1BF
330
1B5
100
AcDbEntity
  8
Layer 1
 62
    40
370
    13
100
AcDbVertex
100
AcDb2dVertex
 10
318.6207024760955
 20
291.6291049880452
 30
0.0
  0
VERTEX
  5
1C0
330
1B5
100
AcDbEntity
  8
Layer 1
 62
    40
370
    13
100
AcDbVertex
100
AcDb2dVertex
 10
319.5862766132239
 20
290.9616608014717
 30
0.0
  0
VERTEX
  5
1C1
330
1B5
100
AcDbEntity
  8
Layer 1
 62
    40
370
    13
100
AcDbVertex
100
AcDb2dVertex
 10
320.5518076866587
 20
290.5139706431634
 30
0.0
  0
VERTEX
  5
1C2
330
1B5
100
AcDbEntity
  8
Layer 1
 62
    40
370
    13
100
AcDbVertex
100
AcDb2dVertex
 10
320.8389994590478
 20
290.4247211382487
 30
0.0
  0
SEQEND
  5
1C3
330
1B5
100
AcDbEntity
  8
Layer 1
 62
    40
370
    13
  0
POLYLINE
  5
1C4
330
1B1
100
AcDbEntity
  8
Layer 1
 62
    40
370
    13
100
AcDb2dPolyline
 66
     1
 10
0.0
 20
0.0
 30
0.0
  0
VERTEX
  5
1C5
330
1C4
100
AcDbEntity
  8
Layer 1
 62
    40
370
    13
100
AcDbVertex
100
AcDb2dVertex
 10
314.7980245256623
 20
341.7165085060681
 30
0.0
  0
VERTEX
  5
1C6
330
1C4
100
AcDbEntity
  8
Layer 1
 62
    40
370
    13
100
AcDbVertex
100
AcDb2dVertex
 10
314.7317064375712
 20
341.422275819781
 30
0.0
  0
VERTEX
  5
1C7
330
1C4
100
AcDbEntity
  8
Layer 1
 62
    40
370
    13
100
AcDbVertex
100
AcDb2dVertex
 10
314.6364495474041
 20
340.3618323657275
 30
0.0
  0
VERTEX
  5
1C8
330
1C4
100
AcDbEntity
  8
Layer 1
 62
    40
370
    13
100
AcDbVertex
100
AcDb2dVertex
 10
314.7317064375712
 20
339.1920286618641
 30
0.0
  0
VERTEX
  5
1C9
330
1C4
100
AcDbEntity
  8
Layer 1
 62
    40
370
    13
100
AcDbVertex
100
AcDb2dVertex
 10
315.0132138024097
 20
337.9569403985553
 30
0.0
  0
VERTEX
  5
1CA
330
1C4
100
AcDbEntity
  8
Layer 1
 62
    40
370
    13
100
AcDbVertex
100
AcDb2dVertex
 10
315.4707655465444
 20
336.7049496355219
 30
0.0
  0
VERTEX
  5
1CB
330
1C4
100
AcDbEntity
  8
Layer 1
 62
    40
370
    13
100
AcDbVertex
100
AcDb2dVertex
 10
316.086361046065
 20
335.4832757127588
 30
0.0
  0
VERTEX
  5
1CC
330
1C4
100
AcDbEntity
  8
Layer 1
 62
    40
370
    13
100
AcDbVertex
100
AcDb2dVertex
 10
316.8363583332039
 20
334.3395686071962
 30
0.0
  0
VERTEX
  5
1CD
330
1C4
100
AcDbEntity
  8
Layer 1
 62
    40
370
    13
100
AcDbVertex
100
AcDb2dVertex
 10
317.6922061791271
 20
333.3172149901015
 30
0.0
  0
VERTEX
  5
1CE
330
1C4
100
AcDbEntity
  8
Layer 1
 62
    40
370
    13
100
AcDbVertex
100
AcDb2dVertex
 10
318.6207024760955
 20
332.4560918417166
 30
0.0
  0
VERTEX
  5
1CF
330
1C4
100
AcDbEntity
  8
Layer 1
 62
    40
370
    13
100
AcDbVertex
100
AcDb2dVertex
 10
319.5862766132239
 20
331.7886261232962
 30
0.0
  0
VERTEX
  5
1D0
330
1C4
100
AcDbEntity
  8
Layer 1
 62
    40
370
    13
100
AcDbVertex
100
AcDb2dVertex
 10
320.5518076866587
 20
331.3413020063833
 30
0.0
  0
VERTEX
  5
1D1
330
1C4
100
AcDbEntity
  8
Layer 1
 62
    40
370
    13
100
AcDbVertex
100
AcDb2dVertex
 10
320.8389994590478
 20
331.25170799192
 30
0.0
  0
SEQEND
  5
1D2
330
1C4
100
AcDbEntity
  8
Layer 1
 62
    40
370
    13
  0
POLYLINE
  5
1D3
330
1B1
100
AcDbEntity
  8
Layer 1
 62
    40
370
    13
100
AcDb2dPolyline
 66
     1
 10
0.0
 20
0.0
 30
0.0
  0
VERTEX
  5
1D4
330
1D3
100
AcDbEntity
  8
Layer 1
 62
    40
370
    13
100
AcDbVertex
100
AcDb2dVertex
 10
314.7980245256623
 20
479.7118967568883
 30
0.0
  0
VERTEX
  5
1D5
330
1D3
100
AcDbEntity
  8
Layer 1
 62
    40
370
    13
100
AcDbVertex
100
AcDb2dVertex
 10
314.7317064375712
 20
479.4176425387544
 30
0.0
  0
VERTEX
  5
1D6
330
1D3
100
AcDbEntity
  8
Layer 1
 62
    40
370
    13
100
AcDbVertex
100
AcDb2dVertex
 10
314.6364495474041
 20
478.3571990847009
 30
0.0
  0
SEQEND
  5
1D7
330
1D3
100
AcDbEntity
  8
Layer 1
 62
    40
370
    13
  0
POLYLINE
  5
1D8
330
1B1
100
AcDbEntity
  8
Layer 1
 62
    40
370
    13
100
AcDb2dPolyline
 66
     1
 10
0.0
 20
0.0
 30
0.0
  0
VERTEX
  5
1D9
330
1D8
100
AcDbEntity
  8
Layer 1
 62
    40
370
    13
100
AcDbVertex
100
AcDb2dVertex
 10
314.6364495474041
 20
478.3571990847009
 30
0.0
  0
VERTEX
  5
1DA
330
1D8
100
AcDbEntity
  8
Layer 1
 62
    40
370
    13
100
AcDbVertex
100
AcDb2dVertex
 10
314.7317064375712
 20
477.1874169126843
 30
0.0
  0
VERTEX
  5
1DB
330
1D8
100
AcDbEntity
  8
Layer 1
 62
    40
370
    13
100
AcDbVertex
100
AcDb2dVertex
 10
315.0132138024097
 20
475.9526946907708
 30
0.0
  0
VERTEX
  5
1DC
330
1D8
100
AcDbEntity
  8
Layer 1
 62
    40
370
    13
100
AcDbVertex
100
AcDb2dVertex
 10
315.4707655465444
 20
474.7003163544953
 30
0.0
  0
VERTEX
  5
1DD
330
1D8
100
AcDbEntity
  8
Layer 1
 62
    40
370
    13
100
AcDbVertex
100
AcDb2dVertex
 10
316.086361046065
 20
473.4786424317322
 30
0.0
  0
VERTEX
  5
1DE
330
1D8
100
AcDbEntity
  8
Layer 1
 62
    40
370
    13
100
AcDbVertex
100
AcDb2dVertex
 10
316.8363583332039
 20
472.3349568580164
 30
0.0
  0
VERTEX
  5
1DF
330
1D8
100
AcDbEntity
  8
Layer 1
 62
    40
370
    13
100
AcDbVertex
100
AcDb2dVertex
 10
317.6922061791271
 20
471.3125817090749
 30
0.0
  0
VERTEX
  5
1E0
330
1D8
100
AcDbEntity
  8
Layer 1
 62
    40
370
    13
100
AcDbVertex
100
AcDb2dVertex
 10
318.6207024760955
 20
470.4514370288431
 30
0.0
  0
VERTEX
  5
1E1
330
1D8
100
AcDbEntity
  8
Layer 1
 62
    40
370
    13
100
AcDbVertex
100
AcDb2dVertex
 10
319.5862766132239
 20
469.7839928422696
 30
0.0
  0
VERTEX
  5
1E2
330
1D8
100
AcDbEntity
  8
Layer 1
 62
    40
370
    13
100
AcDbVertex
100
AcDb2dVertex
 10
320.5518076866587
 20
469.3363457476549
 30
0.0
  0
VERTEX
  5
1E3
330
1D8
100
AcDbEntity
  8
Layer 1
 62
    40
370
    13
100
AcDbVertex
100
AcDb2dVertex
 10
320.8389994590478
 20
469.2470747108933
 30
0.0
  0
SEQEND
  5
1E4
330
1D8
100
AcDbEntity
  8
Layer 1
 62
    40
370
    13
  0
POLYLINE
  5
1E5
330
1B1
100
AcDbEntity
  8
Layer 1
 62
    40
370
    13
100
AcDb2dPolyline
 66
     1
 10
0.0
 20
0.0
 30
0.0
  0
VERTEX
  5
1E6
330
1E5
100
AcDbEntity
  8
Layer 1
 62
    40
370
    13
100
AcDbVertex
100
AcDb2dVertex
 10
314.7980245256623
 20
520.5388620787128
 30
0.0
  0
VERTEX
  5
1E7
330
1E5
100
AcDbEntity
  8
Layer 1
 62
    40
370
    13
100
AcDbVertex
100
AcDb2dVertex
 10
314.7317064375712
 20
520.2446509242725
 30
0.0
  0
VERTEX
  5
1E8
330
1E5
100
AcDbEntity
  8
Layer 1
 62
    40
370
    13
100
AcDbVertex
100
AcDb2dVertex
 10
314.6364495474041
 20
519.1845519797675
 30
0.0
  0
SEQEND
  5
1E9
330
1E5
100
AcDbEntity
  8
Layer 1
 62
    40
370
    13
  0
POLYLINE
  5
1EA
330
1B1
100
AcDbEntity
  8
Layer 1
 62
    40
370
    13
100
AcDb2dPolyline
 66
     1
 10
0.0
 20
0.0
 30
0.0
  0
VERTEX
  5
1EB
330
1EA
100
AcDbEntity
  8
Layer 1
 62
    40
370
    13
100
AcDbVertex
100
AcDb2dVertex
 10
314.6364495474041
 20
519.1845519797675
 30
0.0
  0
VERTEX
  5
1EC
330
1EA
100
AcDbEntity
  8
Layer 1
 62
    40
370
    13
100
AcDbVertex
100
AcDb2dVertex
 10
314.7317064375712
 20
518.0143822345088
 30
0.0
  0
VERTEX
  5
1ED
330
1EA
100
AcDbEntity
  8
Layer 1
 62
    40
370
    13
100
AcDbVertex
100
AcDb2dVertex
 10
315.0132138024097
 20
516.7796600125953
 30
0.0
  0
VERTEX
  5
1EE
330
1EA
100
AcDbEntity
  8
Layer 1
 62
    40
370
    13
100
AcDbVertex
100
AcDb2dVertex
 10
315.4707655465444
 20
515.5272816763198
 30
0.0
  0
VERTEX
  5
1EF
330
1EA
100
AcDbEntity
  8
Layer 1
 62
    40
370
    13
100
AcDbVertex
100
AcDb2dVertex
 10
316.086361046065
 20
514.3059522631053
 30
0.0
  0
VERTEX
  5
1F0
330
1EA
100
AcDbEntity
  8
Layer 1
 62
    40
370
    13
100
AcDbVertex
100
AcDb2dVertex
 10
316.8363583332039
 20
513.1619221798409
 30
0.0
  0
VERTEX
  5
1F1
330
1EA
100
AcDbEntity
  8
Layer 1
 62
    40
370
    13
100
AcDbVertex
100
AcDb2dVertex
 10
317.6922061791271
 20
512.1399346041416
 30
0.0
  0
VERTEX
  5
1F2
330
1EA
100
AcDbEntity
  8
Layer 1
 62
    40
370
    13
100
AcDbVertex
100
AcDb2dVertex
 10
318.6207024760955
 20
511.2784454143612
 30
0.0
  0
VERTEX
  5
1F3
330
1EA
100
AcDbEntity
  8
Layer 1
 62
    40
370
    13
100
AcDbVertex
100
AcDb2dVertex
 10
319.5862766132239
 20
510.6113457373361
 30
0.0
  0
VERTEX
  5
1F4
330
1EA
100
AcDbEntity
  8
Layer 1
 62
    40
370
    13
100
AcDbVertex
100
AcDb2dVertex
 10
320.5518076866587
 20
510.1636555790279
 30
0.0
  0
VERTEX
  5
1F5
330
1EA
100
AcDbEntity
  8
Layer 1
 62
    40
370
    13
100
AcDbVertex
100
AcDb2dVertex
 10
320.8389994590478
 20
510.0740400327179
 30
0.0
  0
SEQEND
  5
1F6
330
1EA
100
AcDbEntity
  8
Layer 1
 62
    40
370
    13
  0
POLYLINE
  5
1F7
330
1B1
100
AcDbEntity
  8
Layer 1
 62
    40
370
    13
100
AcDb2dPolyline
 66
     1
 10
0.0
 20
0.0
 30
0.0
  0
VERTEX
  5
1F8
330
1F7
100
AcDbEntity
  8
Layer 1
 62
    40
370
    13
100
AcDbVertex
100
AcDb2dVertex
 10
346.1027889899498
 20
519.799759906046
 30
0.0
  0
VERTEX
  5
1F9
330
1F7
100
AcDbEntity
  8
Layer 1
 62
    40
370
    13
100
AcDbVertex
100
AcDb2dVertex
 10
293.0697211728044
 20
550.4149023815736
 30
0.0
  0
SEQEND
  5
1FA
330
1F7
100
AcDbEntity
  8
Layer 1
 62
    40
370
    13
  0
POLYLINE
  5
1FB
330
1B1
100
AcDbEntity
  8
Layer 1
 62
    40
370
    13
100
AcDb2dPolyline
 66
     1
 10
0.0
 20
0.0
 30
0.0
  0
VERTEX
  5
1FC
330
1FB
100
AcDbEntity
  8
Layer 1
 62
    40
370
    13
100
AcDbVertex
100
AcDb2dVertex
 10
293.0697211728044
 20
550.4149023815736
 30
0.0
  0
VERTEX
  5
1FD
330
1FB
100
AcDbEntity
  8
Layer 1
 62
    40
370
    13
100
AcDbVertex
100
AcDb2dVertex
 10
289.5341919310668
 20
548.3740708798052
 30
0.0
  0
SEQEND
  5
1FE
330
1FB
100
AcDbEntity
  8
Layer 1
 62
    40
370
    13
  0
POLYLINE
  5
1FF
330
1B1
100
AcDbEntity
  8
Layer 1
 62
    40
370
    13
100
AcDb2dPolyline
 66
     1
 10
0.0
 20
0.0
 30
0.0
  0
VERTEX
  5
200
330
1FF
100
AcDbEntity
  8
Layer 1
 62
    40
370
    13
100
AcDbVertex
100
AcDb2dVertex
 10
346.1027889899498
 20
262.5895123371563
 30
0.0
  0
VERTEX
  5
201
330
1FF
100
AcDbEntity
  8
Layer 1
 62
    40
370
    13
100
AcDbVertex
100
AcDb2dVertex
 10
346.1027889899498
 20
519.799759906046
 30
0.0
  0
SEQEND
  5
202
330
1FF
100
AcDbEntity
  8
Layer 1
 62
    40
370
    13
  0
POLYLINE
  5
203
330
1B1
100
AcDbEntity
  8
Layer 1
 62
    40
370
    13
100
AcDb2dPolyline
 66
     1
 10
0.0
 20
0.0
 30
0.0
  0
VERTEX
  5
204
330
203
100
AcDbEntity
  8
Layer 1
 62
    40
370
    13
100
AcDbVertex
100
AcDb2dVertex
 10
346.1027889899498
 20
519.799759906046
 30
0.0
  0
VERTEX
  5
205
330
203
100
AcDbEntity
  8
Layer 1
 62
    40
370
    13
100
AcDbVertex
100
AcDb2dVertex
 10
342.5672597482122
 20
517.7586269584226
 30
0.0
  0
SEQEND
  5
206
330
203
100
AcDbEntity
  8
Layer 1
 62
    40
370
    13
  0
POLYLINE
  5
207
330
1B1
100
AcDbEntity
  8
Layer 1
 62
    40
370
    13
100
AcDb2dPolyline
 66
     1
 10
0.0
 20
0.0
 30
0.0
  0
VERTEX
  5
208
330
207
100
AcDbEntity
  8
Layer 1
 62
    40
370
    13
100
AcDbVertex
100
AcDb2dVertex
 10
346.1027889899498
 20
262.5895123371563
 30
0.0
  0
VERTEX
  5
209
330
207
100
AcDbEntity
  8
Layer 1
 62
    40
370
    13
100
AcDbVertex
100
AcDb2dVertex
 10
342.5672597482122
 20
260.5483363258393
 30
0.0
  0
SEQEND
  5
20A
330
207
100
AcDbEntity
  8
Layer 1
 62
    40
370
    13
  0
POLYLINE
  5
20B
330
1B1
100
AcDbEntity
  8
Layer 1
 62
    40
370
    13
100
AcDb2dPolyline
 66
     1
 10
0.0
 20
0.0
 30
0.0
  0
VERTEX
  5
20C
330
20B
100
AcDbEntity
  8
Layer 1
 62
    40
370
    13
100
AcDbVertex
100
AcDb2dVertex
 10
342.5672597482122
 20
260.5483363258393
 30
0.0
  0
VERTEX
  5
20D
330
20B
100
AcDbEntity
  8
Layer 1
 62
    40
370
    13
100
AcDbVertex
100
AcDb2dVertex
 10
342.5672597482122
 20
517.7586269584226
 30
0.0
  0
SEQEND
  5
20E
330
20B
100
AcDbEntity
  8
Layer 1
 62
    40
370
    13
  0
POLYLINE
  5
20F
330
1B1
100
AcDbEntity
  8
Layer 1
 62
    40
370
    13
100
AcDb2dPolyline
 66
     1
 10
0.0
 20
0.0
 30
0.0
  0
VERTEX
  5
210
330
20F
100
AcDbEntity
  8
Layer 1
 62
    40
370
    13
100
AcDbVertex
100
AcDb2dVertex
 10
342.5672597482122
 20
517.7586269584226
 30
0.0
  0
VERTEX
  5
211
330
20F
100
AcDbEntity
  8
Layer 1
 62
    40
370
    13
100
AcDbVertex
100
AcDb2dVertex
 10
289.5341919310668
 20
548.3740708798052
 30
0.0
  0
SEQEND
  5
212
330
20F
100
AcDbEntity
  8
Layer 1
 62
    40
370
    13
  0
POLYLINE
  5
213
330
1B1
100
AcDbEntity
  8
Layer 1
 62
    40
370
    13
100
AcDb2dPolyline
 66
     1
 10
0.0
 20
0.0
 30
0.0
  0
VERTEX
  5
214
330
213
100
AcDbEntity
  8
Layer 1
 62
    40
370
    13
100
AcDbVertex
100
AcDb2dVertex
 10
289.5341919310668
 20
548.3740708798052
 30
0.0
  0
VERTEX
  5
215
330
213
100
AcDbEntity
  8
Layer 1
 62
    40
370
    13
100
AcDbVertex
100
AcDb2dVertex
 10
289.5341919310668
 20
291.1638017790687
 30
0.0
  0
SEQEND
  5
216
330
213
100
AcDbEntity
  8
Layer 1
 62
    40
370
    13
  0
POLYLINE
  5
217
330
1B1
100
AcDbEntity
  8
Layer 1
 62
    40
370
    13
100
AcDb2dPolyline
 66
     1
 10
0.0
 20
0.0
 30
0.0
  0
VERTEX
  5
218
330
217
100
AcDbEntity
  8
Layer 1
 62
    40
370
    13
100
AcDbVertex
100
AcDb2dVertex
 10
289.5341919310668
 20
291.1638017790687
 30
0.0
  0
VERTEX
  5
219
330
217
100
AcDbEntity
  8
Layer 1
 62
    40
370
    13
100
AcDbVertex
100
AcDb2dVertex
 10
342.5672597482122
 20
260.5483363258393
 30
0.0
  0
SEQEND
  5
21A
330
217
100
AcDbEntity
  8
Layer 1
 62
    40
370
    13
  0
POLYLINE
  5
21B
330
1B1
100
AcDbEntity
  8
Layer 1
 62
    40
370
    13
100
AcDb2dPolyline
 66
     1
 10
0.0
 20
0.0
 30
0.0
  0
VERTEX
  5
21C
330
21B
100
AcDbEntity
  8
Layer 1
 62
    40
370
    13
100
AcDbVertex
100
AcDb2dVertex
 10
311.1009203056664
 20
476.316410646626
 30
0.0
  0
VERTEX
  5
21D
330
21B
100
AcDbEntity
  8
Layer 1
 62
    40
370
    13
100
AcDbVertex
100
AcDb2dVertex
 10
311.19613413214
 20
475.1462409013674
 30
0.0
  0
VERTEX
  5
21E
330
21B
100
AcDbEntity
  8
Layer 1
 62
    40
370
    13
100
AcDbVertex
100
AcDb2dVertex
 10
311.4776845606721
 20
473.9115186794538
 30
0.0
  0
VERTEX
  5
21F
330
21B
100
AcDbEntity
  8
Layer 1
 62
    40
370
    13
100
AcDbVertex
100
AcDb2dVertex
 10
311.9352363048068
 20
472.6591403431784
 30
0.0
  0
VERTEX
  5
220
330
21B
100
AcDbEntity
  8
Layer 1
 62
    40
370
    13
100
AcDbVertex
100
AcDb2dVertex
 10
312.5508318043273
 20
471.4378109299637
 30
0.0
  0
VERTEX
  5
221
330
21B
100
AcDbEntity
  8
Layer 1
 62
    40
370
    13
100
AcDbVertex
100
AcDb2dVertex
 10
313.3008290914663
 20
470.2937808466994
 30
0.0
  0
VERTEX
  5
222
330
21B
100
AcDbEntity
  8
Layer 1
 62
    40
370
    13
100
AcDbVertex
100
AcDb2dVertex
 10
314.1566769373895
 20
469.2717502073065
 30
0.0
  0
VERTEX
  5
223
330
21B
100
AcDbEntity
  8
Layer 1
 62
    40
370
    13
100
AcDbVertex
100
AcDb2dVertex
 10
315.0851732343579
 20
468.4103040812197
 30
0.0
  0
VERTEX
  5
224
330
21B
100
AcDbEntity
  8
Layer 1
 62
    40
370
    13
100
AcDbVertex
100
AcDb2dVertex
 10
316.0507473714862
 20
467.7431613405011
 30
0.0
  0
VERTEX
  5
225
330
21B
100
AcDbEntity
  8
Layer 1
 62
    40
370
    13
100
AcDbVertex
100
AcDb2dVertex
 10
317.0162784449211
 20
467.2955142458865
 30
0.0
  0
VERTEX
  5
226
330
21B
100
AcDbEntity
  8
Layer 1
 62
    40
370
    13
100
AcDbVertex
100
AcDb2dVertex
 10
317.9451623151315
 20
467.0845452111085
 30
0.0
  0
VERTEX
  5
227
330
21B
100
AcDbEntity
  8
Layer 1
 62
    40
370
    13
100
AcDbVertex
100
AcDb2dVertex
 10
318.8006225878127
 20
467.1187808474932
 30
0.0
  0
VERTEX
  5
228
330
21B
100
AcDbEntity
  8
Layer 1
 62
    40
370
    13
100
AcDbVertex
100
AcDb2dVertex
 10
319.5510074481937
 20
467.3967569894592
 30
0.0
  0
VERTEX
  5
229
330
21B
100
AcDbEntity
  8
Layer 1
 62
    40
370
    13
100
AcDbVertex
100
AcDb2dVertex
 10
320.1662153744721
 20
467.9075785225347
 30
0.0
  0
VERTEX
  5
22A
330
21B
100
AcDbEntity
  8
Layer 1
 62
    40
370
    13
100
AcDbVertex
100
AcDb2dVertex
 10
320.6237671186069
 20
468.6314792113728
 30
0.0
  0
VERTEX
  5
22B
330
21B
100
AcDbEntity
  8
Layer 1
 62
    40
370
    13
100
AcDbVertex
100
AcDb2dVertex
 10
320.9053175471389
 20
469.5412858653337
 30
0.0
  0
VERTEX
  5
22C
330
21B
100
AcDbEntity
  8
Layer 1
 62
    40
370
    13
100
AcDbVertex
100
AcDb2dVertex
 10
321.0005744373061
 20
470.6013848098386
 30
0.0
  0
VERTEX
  5
22D
330
21B
100
AcDbEntity
  8
Layer 1
 62
    40
370
    13
100
AcDbVertex
100
AcDb2dVertex
 10
320.9053175471389
 20
471.7715545550973
 30
0.0
  0
VERTEX
  5
22E
330
21B
100
AcDbEntity
  8
Layer 1
 62
    40
370
    13
100
AcDbVertex
100
AcDb2dVertex
 10
320.6237671186069
 20
473.0062767770108
 30
0.0
  0
VERTEX
  5
22F
330
21B
100
AcDbEntity
  8
Layer 1
 62
    40
370
    13
100
AcDbVertex
100
AcDb2dVertex
 10
320.1662153744721
 20
474.2586551132863
 30
0.0
  0
VERTEX
  5
230
330
21B
100
AcDbEntity
  8
Layer 1
 62
    40
370
    13
100
AcDbVertex
100
AcDb2dVertex
 10
319.5510074481937
 20
475.4799414628074
 30
0.0
  0
VERTEX
  5
231
330
21B
100
AcDbEntity
  8
Layer 1
 62
    40
370
    13
100
AcDbVertex
100
AcDb2dVertex
 10
318.8006225878127
 20
476.6240146097653
 30
0.0
  0
VERTEX
  5
232
330
21B
100
AcDbEntity
  8
Layer 1
 62
    40
370
    13
100
AcDbVertex
100
AcDb2dVertex
 10
317.9451623151315
 20
477.6460021854646
 30
0.0
  0
VERTEX
  5
233
330
21B
100
AcDbEntity
  8
Layer 1
 62
    40
370
    13
100
AcDbVertex
100
AcDb2dVertex
 10
317.0162784449211
 20
478.5074913752449
 30
0.0
  0
VERTEX
  5
234
330
21B
100
AcDbEntity
  8
Layer 1
 62
    40
370
    13
100
AcDbVertex
100
AcDb2dVertex
 10
316.0507473714862
 20
479.17459105227
 30
0.0
  0
VERTEX
  5
235
330
21B
100
AcDbEntity
  8
Layer 1
 62
    40
370
    13
100
AcDbVertex
100
AcDb2dVertex
 10
315.0851732343579
 20
479.6222812105782
 30
0.0
  0
VERTEX
  5
236
330
21B
100
AcDbEntity
  8
Layer 1
 62
    40
370
    13
100
AcDbVertex
100
AcDb2dVertex
 10
314.1566769373895
 20
479.8332502453562
 30
0.0
  0
VERTEX
  5
237
330
21B
100
AcDbEntity
  8
Layer 1
 62
    40
370
    13
100
AcDbVertex
100
AcDb2dVertex
 10
313.3008290914663
 20
479.7990146089715
 30
0.0
  0
VERTEX
  5
238
330
21B
100
AcDbEntity
  8
Layer 1
 62
    40
370
    13
100
AcDbVertex
100
AcDb2dVertex
 10
312.5508318043273
 20
479.5210384670054
 30
0.0
  0
VERTEX
  5
239
330
21B
100
AcDbEntity
  8
Layer 1
 62
    40
370
    13
100
AcDbVertex
100
AcDb2dVertex
 10
311.9352363048068
 20
479.01021693393
 30
0.0
  0
VERTEX
  5
23A
330
21B
100
AcDbEntity
  8
Layer 1
 62
    40
370
    13
100
AcDbVertex
100
AcDb2dVertex
 10
311.4776845606721
 20
478.2863162450919
 30
0.0
  0
VERTEX
  5
23B
330
21B
100
AcDbEntity
  8
Layer 1
 62
    40
370
    13
100
AcDbVertex
100
AcDb2dVertex
 10
311.19613413214
 20
477.376509591131
 30
0.0
  0
VERTEX
  5
23C
330
21B
100
AcDbEntity
  8
Layer 1
 62
    40
370
    13
100
AcDbVertex
100
AcDb2dVertex
 10
311.1009203056664
 20
476.316410646626
 30
0.0
  0
SEQEND
  5
23D
330
21B
100
AcDbEntity
  8
Layer 1
 62
    40
370
    13
  0
POLYLINE
  5
23E
330
1B1
100
AcDbEntity
  8
Layer 1
 62
    40
370
    13
100
AcDb2dPolyline
 66
     1
 10
0.0
 20
0.0
 30
0.0
  0
VERTEX
  5
23F
330
23E
100
AcDbEntity
  8
Layer 1
 62
    40
370
    13
100
AcDbVertex
100
AcDb2dVertex
 10
311.1009203056664
 20
517.1433759684505
 30
0.0
  0
VERTEX
  5
240
330
23E
100
AcDbEntity
  8
Layer 1
 62
    40
370
    13
100
AcDbVertex
100
AcDb2dVertex
 10
311.19613413214
 20
515.9732062231918
 30
0.0
  0
VERTEX
  5
241
330
23E
100
AcDbEntity
  8
Layer 1
 62
    40
370
    13
100
AcDbVertex
100
AcDb2dVertex
 10
311.4776845606721
 20
514.7384840012784
 30
0.0
  0
VERTEX
  5
242
330
23E
100
AcDbEntity
  8
Layer 1
 62
    40
370
    13
100
AcDbVertex
100
AcDb2dVertex
 10
311.9352363048068
 20
513.4861056650029
 30
0.0
  0
VERTEX
  5
243
330
23E
100
AcDbEntity
  8
Layer 1
 62
    40
370
    13
100
AcDbVertex
100
AcDb2dVertex
 10
312.5508318043273
 20
512.2648193154819
 30
0.0
  0
VERTEX
  5
244
330
23E
100
AcDbEntity
  8
Layer 1
 62
    40
370
    13
100
AcDbVertex
100
AcDb2dVertex
 10
313.3008290914663
 20
511.1210906780724
 30
0.0
  0
VERTEX
  5
245
330
23E
100
AcDbEntity
  8
Layer 1
 62
    40
370
    13
100
AcDbVertex
100
AcDb2dVertex
 10
314.1566769373895
 20
510.0987585928245
 30
0.0
  0
VERTEX
  5
246
330
23E
100
AcDbEntity
  8
Layer 1
 62
    40
370
    13
100
AcDbVertex
100
AcDb2dVertex
 10
315.0851732343579
 20
509.2376139125928
 30
0.0
  0
VERTEX
  5
247
330
23E
100
AcDbEntity
  8
Layer 1
 62
    40
370
    13
100
AcDbVertex
100
AcDb2dVertex
 10
316.0507473714862
 20
508.5701697260192
 30
0.0
  0
VERTEX
  5
248
330
23E
100
AcDbEntity
  8
Layer 1
 62
    40
370
    13
100
AcDbVertex
100
AcDb2dVertex
 10
317.0162784449211
 20
508.122479567711
 30
0.0
  0
VERTEX
  5
249
330
23E
100
AcDbEntity
  8
Layer 1
 62
    40
370
    13
100
AcDbVertex
100
AcDb2dVertex
 10
317.9451623151315
 20
507.9118550424815
 30
0.0
  0
VERTEX
  5
24A
330
23E
100
AcDbEntity
  8
Layer 1
 62
    40
370
    13
100
AcDbVertex
100
AcDb2dVertex
 10
318.8006225878127
 20
507.9460906788662
 30
0.0
  0
VERTEX
  5
24B
330
23E
100
AcDbEntity
  8
Layer 1
 62
    40
370
    13
100
AcDbVertex
100
AcDb2dVertex
 10
319.5510074481937
 20
508.2237223112838
 30
0.0
  0
VERTEX
  5
24C
330
23E
100
AcDbEntity
  8
Layer 1
 62
    40
370
    13
100
AcDbVertex
100
AcDb2dVertex
 10
320.1662153744721
 20
508.7345438443592
 30
0.0
  0
VERTEX
  5
24D
330
23E
100
AcDbEntity
  8
Layer 1
 62
    40
370
    13
100
AcDbVertex
100
AcDb2dVertex
 10
320.6237671186069
 20
509.4587890427458
 30
0.0
  0
VERTEX
  5
24E
330
23E
100
AcDbEntity
  8
Layer 1
 62
    40
370
    13
100
AcDbVertex
100
AcDb2dVertex
 10
320.9053175471389
 20
510.3682511871582
 30
0.0
  0
VERTEX
  5
24F
330
23E
100
AcDbEntity
  8
Layer 1
 62
    40
370
    13
100
AcDbVertex
100
AcDb2dVertex
 10
321.0005744373061
 20
511.4283501316631
 30
0.0
  0
VERTEX
  5
250
330
23E
100
AcDbEntity
  8
Layer 1
 62
    40
370
    13
100
AcDbVertex
100
AcDb2dVertex
 10
320.9053175471389
 20
512.5985198769218
 30
0.0
  0
VERTEX
  5
251
330
23E
100
AcDbEntity
  8
Layer 1
 62
    40
370
    13
100
AcDbVertex
100
AcDb2dVertex
 10
320.6237671186069
 20
513.8332420988354
 30
0.0
  0
VERTEX
  5
252
330
23E
100
AcDbEntity
  8
Layer 1
 62
    40
370
    13
100
AcDbVertex
100
AcDb2dVertex
 10
320.1662153744721
 20
515.0856204351109
 30
0.0
  0
VERTEX
  5
253
330
23E
100
AcDbEntity
  8
Layer 1
 62
    40
370
    13
100
AcDbVertex
100
AcDb2dVertex
 10
319.5510074481937
 20
516.307294357874
 30
0.0
  0
VERTEX
  5
254
330
23E
100
AcDbEntity
  8
Layer 1
 62
    40
370
    13
100
AcDbVertex
100
AcDb2dVertex
 10
318.8006225878127
 20
517.4509799315898
 30
0.0
  0
VERTEX
  5
255
330
23E
100
AcDbEntity
  8
Layer 1
 62
    40
370
    13
100
AcDbVertex
100
AcDb2dVertex
 10
317.9451623151315
 20
518.4733550805313
 30
0.0
  0
VERTEX
  5
256
330
23E
100
AcDbEntity
  8
Layer 1
 62
    40
370
    13
100
AcDbVertex
100
AcDb2dVertex
 10
317.0162784449211
 20
519.3344566970694
 30
0.0
  0
VERTEX
  5
257
330
23E
100
AcDbEntity
  8
Layer 1
 62
    40
370
    13
100
AcDbVertex
100
AcDb2dVertex
 10
316.0507473714862
 20
520.0015563740945
 30
0.0
  0
VERTEX
  5
258
330
23E
100
AcDbEntity
  8
Layer 1
 62
    40
370
    13
100
AcDbVertex
100
AcDb2dVertex
 10
315.0851732343579
 20
520.4492465324028
 30
0.0
  0
VERTEX
  5
259
330
23E
100
AcDbEntity
  8
Layer 1
 62
    40
370
    13
100
AcDbVertex
100
AcDb2dVertex
 10
314.1566769373895
 20
520.6602155671807
 30
0.0
  0
VERTEX
  5
25A
330
23E
100
AcDbEntity
  8
Layer 1
 62
    40
370
    13
100
AcDbVertex
100
AcDb2dVertex
 10
313.3008290914663
 20
520.625979930796
 30
0.0
  0
VERTEX
  5
25B
330
23E
100
AcDbEntity
  8
Layer 1
 62
    40
370
    13
100
AcDbVertex
100
AcDb2dVertex
 10
312.5508318043273
 20
520.3480037888299
 30
0.0
  0
VERTEX
  5
25C
330
23E
100
AcDbEntity
  8
Layer 1
 62
    40
370
    13
100
AcDbVertex
100
AcDb2dVertex
 10
311.9352363048068
 20
519.8371822557546
 30
0.0
  0
VERTEX
  5
25D
330
23E
100
AcDbEntity
  8
Layer 1
 62
    40
370
    13
100
AcDbVertex
100
AcDb2dVertex
 10
311.4776845606721
 20
519.1132815669164
 30
0.0
  0
VERTEX
  5
25E
330
23E
100
AcDbEntity
  8
Layer 1
 62
    40
370
    13
100
AcDbVertex
100
AcDb2dVertex
 10
311.19613413214
 20
518.2034749129555
 30
0.0
  0
VERTEX
  5
25F
330
23E
100
AcDbEntity
  8
Layer 1
 62
    40
370
    13
100
AcDbVertex
100
AcDb2dVertex
 10
311.1009203056664
 20
517.1433759684505
 30
0.0
  0
SEQEND
  5
260
330
23E
100
AcDbEntity
  8
Layer 1
 62
    40
370
    13
  0
POLYLINE
  5
261
330
1B1
100
AcDbEntity
  8
Layer 1
 62
    40
370
    13
100
AcDb2dPolyline
 66
     1
 10
0.0
 20
0.0
 30
0.0
  0
VERTEX
  5
262
330
261
100
AcDbEntity
  8
Layer 1
 62
    40
370
    13
100
AcDbVertex
100
AcDb2dVertex
 10
321.0005744373061
 20
332.6060180908652
 30
0.0
  0
VERTEX
  5
263
330
261
100
AcDbEntity
  8
Layer 1
 62
    40
370
    13
100
AcDbVertex
100
AcDb2dVertex
 10
320.9053175471389
 20
333.7761878361239
 30
0.0
  0
VERTEX
  5
264
330
261
100
AcDbEntity
  8
Layer 1
 62
    40
370
    13
100
AcDbVertex
100
AcDb2dVertex
 10
320.6237671186069
 20
335.0109100580375
 30
0.0
  0
VERTEX
  5
265
330
261
100
AcDbEntity
  8
Layer 1
 62
    40
370
    13
100
AcDbVertex
100
AcDb2dVertex
 10
320.1662153744721
 20
336.2632668624661
 30
0.0
  0
VERTEX
  5
266
330
261
100
AcDbEntity
  8
Layer 1
 62
    40
370
    13
100
AcDbVertex
100
AcDb2dVertex
 10
319.5510074481937
 20
337.484574743834
 30
0.0
  0
VERTEX
  5
267
330
261
100
AcDbEntity
  8
Layer 1
 62
    40
370
    13
100
AcDbVertex
100
AcDb2dVertex
 10
318.8006225878127
 20
338.6286478907919
 30
0.0
  0
VERTEX
  5
268
330
261
100
AcDbEntity
  8
Layer 1
 62
    40
370
    13
100
AcDbVertex
100
AcDb2dVertex
 10
317.9451623151315
 20
339.6506354664913
 30
0.0
  0
VERTEX
  5
269
330
261
100
AcDbEntity
  8
Layer 1
 62
    40
370
    13
100
AcDbVertex
100
AcDb2dVertex
 10
317.0162784449211
 20
340.5121246562716
 30
0.0
  0
VERTEX
  5
26A
330
261
100
AcDbEntity
  8
Layer 1
 62
    40
370
    13
100
AcDbVertex
100
AcDb2dVertex
 10
316.0507473714862
 20
341.1792243332966
 30
0.0
  0
VERTEX
  5
26B
330
261
100
AcDbEntity
  8
Layer 1
 62
    40
370
    13
100
AcDbVertex
100
AcDb2dVertex
 10
315.0851732343579
 20
341.626892959758
 30
0.0
  0
VERTEX
  5
26C
330
261
100
AcDbEntity
  8
Layer 1
 62
    40
370
    13
100
AcDbVertex
100
AcDb2dVertex
 10
314.1566769373895
 20
341.837861994536
 30
0.0
  0
VERTEX
  5
26D
330
261
100
AcDbEntity
  8
Layer 1
 62
    40
370
    13
100
AcDbVertex
100
AcDb2dVertex
 10
313.3008290914663
 20
341.8036478899982
 30
0.0
  0
VERTEX
  5
26E
330
261
100
AcDbEntity
  8
Layer 1
 62
    40
370
    13
100
AcDbVertex
100
AcDb2dVertex
 10
312.5508318043273
 20
341.5256502161853
 30
0.0
  0
VERTEX
  5
26F
330
261
100
AcDbEntity
  8
Layer 1
 62
    40
370
    13
100
AcDbVertex
100
AcDb2dVertex
 10
311.9352363048068
 20
341.0148286831098
 30
0.0
  0
VERTEX
  5
270
330
261
100
AcDbEntity
  8
Layer 1
 62
    40
370
    13
100
AcDbVertex
100
AcDb2dVertex
 10
311.4776845606721
 20
340.2909279942717
 30
0.0
  0
VERTEX
  5
271
330
261
100
AcDbEntity
  8
Layer 1
 62
    40
370
    13
100
AcDbVertex
100
AcDb2dVertex
 10
311.19613413214
 20
339.3811213403108
 30
0.0
  0
VERTEX
  5
272
330
261
100
AcDbEntity
  8
Layer 1
 62
    40
370
    13
100
AcDbVertex
100
AcDb2dVertex
 10
311.1009203056664
 20
338.3210223958059
 30
0.0
  0
VERTEX
  5
273
330
261
100
AcDbEntity
  8
Layer 1
 62
    40
370
    13
100
AcDbVertex
100
AcDb2dVertex
 10
311.19613413214
 20
337.1508526505472
 30
0.0
  0
VERTEX
  5
274
330
261
100
AcDbEntity
  8
Layer 1
 62
    40
370
    13
100
AcDbVertex
100
AcDb2dVertex
 10
311.4776845606721
 20
335.9161304286337
 30
0.0
  0
VERTEX
  5
275
330
261
100
AcDbEntity
  8
Layer 1
 62
    40
370
    13
100
AcDbVertex
100
AcDb2dVertex
 10
311.9352363048068
 20
334.663773624205
 30
0.0
  0
VERTEX
  5
276
330
261
100
AcDbEntity
  8
Layer 1
 62
    40
370
    13
100
AcDbVertex
100
AcDb2dVertex
 10
312.5508318043273
 20
333.4424442109903
 30
0.0
  0
VERTEX
  5
277
330
261
100
AcDbEntity
  8
Layer 1
 62
    40
370
    13
100
AcDbVertex
100
AcDb2dVertex
 10
313.3008290914663
 20
332.2983925958792
 30
0.0
  0
VERTEX
  5
278
330
261
100
AcDbEntity
  8
Layer 1
 62
    40
370
    13
100
AcDbVertex
100
AcDb2dVertex
 10
314.1566769373895
 20
331.2764050201799
 30
0.0
  0
VERTEX
  5
279
330
261
100
AcDbEntity
  8
Layer 1
 62
    40
370
    13
100
AcDbVertex
100
AcDb2dVertex
 10
315.0851732343579
 20
330.4149158303996
 30
0.0
  0
VERTEX
  5
27A
330
261
100
AcDbEntity
  8
Layer 1
 62
    40
370
    13
100
AcDbVertex
100
AcDb2dVertex
 10
316.0507473714862
 20
329.7478161533745
 30
0.0
  0
VERTEX
  5
27B
330
261
100
AcDbEntity
  8
Layer 1
 62
    40
370
    13
100
AcDbVertex
100
AcDb2dVertex
 10
317.0162784449211
 20
329.3001259950663
 30
0.0
  0
VERTEX
  5
27C
330
261
100
AcDbEntity
  8
Layer 1
 62
    40
370
    13
100
AcDbVertex
100
AcDb2dVertex
 10
317.9451623151315
 20
329.0891784921351
 30
0.0
  0
VERTEX
  5
27D
330
261
100
AcDbEntity
  8
Layer 1
 62
    40
370
    13
100
AcDbVertex
100
AcDb2dVertex
 10
318.8006225878127
 20
329.123392596673
 30
0.0
  0
VERTEX
  5
27E
330
261
100
AcDbEntity
  8
Layer 1
 62
    40
370
    13
100
AcDbVertex
100
AcDb2dVertex
 10
319.5510074481937
 20
329.4013902704859
 30
0.0
  0
VERTEX
  5
27F
330
261
100
AcDbEntity
  8
Layer 1
 62
    40
370
    13
100
AcDbVertex
100
AcDb2dVertex
 10
320.1662153744721
 20
329.9122118035613
 30
0.0
  0
VERTEX
  5
280
330
261
100
AcDbEntity
  8
Layer 1
 62
    40
370
    13
100
AcDbVertex
100
AcDb2dVertex
 10
320.6237671186069
 20
330.6361124923994
 30
0.0
  0
VERTEX
  5
281
330
261
100
AcDbEntity
  8
Layer 1
 62
    40
370
    13
100
AcDbVertex
100
AcDb2dVertex
 10
320.9053175471389
 20
331.5459191463603
 30
0.0
  0
VERTEX
  5
282
330
261
100
AcDbEntity
  8
Layer 1
 62
    40
370
    13
100
AcDbVertex
100
AcDb2dVertex
 10
321.0005744373061
 20
332.6060180908652
 30
0.0
  0
SEQEND
  5
283
330
261
100
AcDbEntity
  8
Layer 1
 62
    40
370
    13
  0
POLYLINE
  5
284
330
1B1
100
AcDbEntity
  8
Layer 1
 62
    40
370
    13
100
AcDb2dPolyline
 66
     1
 10
0.0
 20
0.0
 30
0.0
  0
VERTEX
  5
285
330
284
100
AcDbEntity
  8
Layer 1
 62
    40
370
    13
100
AcDbVertex
100
AcDb2dVertex
 10
321.0005744373061
 20
291.7790527690407
 30
0.0
  0
VERTEX
  5
286
330
284
100
AcDbEntity
  8
Layer 1
 62
    40
370
    13
100
AcDbVertex
100
AcDb2dVertex
 10
320.9053175471389
 20
292.9492009824526
 30
0.0
  0
VERTEX
  5
287
330
284
100
AcDbEntity
  8
Layer 1
 62
    40
370
    13
100
AcDbVertex
100
AcDb2dVertex
 10
320.6237671186069
 20
294.1839232043662
 30
0.0
  0
VERTEX
  5
288
330
284
100
AcDbEntity
  8
Layer 1
 62
    40
370
    13
100
AcDbVertex
100
AcDb2dVertex
 10
320.1662153744721
 20
295.4362800087948
 30
0.0
  0
VERTEX
  5
289
330
284
100
AcDbEntity
  8
Layer 1
 62
    40
370
    13
100
AcDbVertex
100
AcDb2dVertex
 10
319.5510074481937
 20
296.6576094220095
 30
0.0
  0
VERTEX
  5
28A
330
284
100
AcDbEntity
  8
Layer 1
 62
    40
370
    13
100
AcDbVertex
100
AcDb2dVertex
 10
318.8006225878127
 20
297.8013165275721
 30
0.0
  0
VERTEX
  5
28B
330
284
100
AcDbEntity
  8
Layer 1
 62
    40
370
    13
100
AcDbVertex
100
AcDb2dVertex
 10
317.9451623151315
 20
298.8236701446667
 30
0.0
  0
VERTEX
  5
28C
330
284
100
AcDbEntity
  8
Layer 1
 62
    40
370
    13
100
AcDbVertex
100
AcDb2dVertex
 10
317.0162784449211
 20
299.6851378026003
 30
0.0
  0
VERTEX
  5
28D
330
284
100
AcDbEntity
  8
Layer 1
 62
    40
370
    13
100
AcDbVertex
100
AcDb2dVertex
 10
316.0507473714862
 20
300.3522374796253
 30
0.0
  0
VERTEX
  5
28E
330
284
100
AcDbEntity
  8
Layer 1
 62
    40
370
    13
100
AcDbVertex
100
AcDb2dVertex
 10
315.0851732343579
 20
300.7999276379335
 30
0.0
  0
VERTEX
  5
28F
330
284
100
AcDbEntity
  8
Layer 1
 62
    40
370
    13
100
AcDbVertex
100
AcDb2dVertex
 10
314.1566769373895
 20
301.0105306313162
 30
0.0
  0
VERTEX
  5
290
330
284
100
AcDbEntity
  8
Layer 1
 62
    40
370
    13
100
AcDbVertex
100
AcDb2dVertex
 10
313.3008290914663
 20
300.9763165267783
 30
0.0
  0
VERTEX
  5
291
330
284
100
AcDbEntity
  8
Layer 1
 62
    40
370
    13
100
AcDbVertex
100
AcDb2dVertex
 10
312.5508318043273
 20
300.6986848943608
 30
0.0
  0
VERTEX
  5
292
330
284
100
AcDbEntity
  8
Layer 1
 62
    40
370
    13
100
AcDbVertex
100
AcDb2dVertex
 10
311.9352363048068
 20
300.1878633612853
 30
0.0
  0
VERTEX
  5
293
330
284
100
AcDbEntity
  8
Layer 1
 62
    40
370
    13
100
AcDbVertex
100
AcDb2dVertex
 10
311.4776845606721
 20
299.4635966310519
 30
0.0
  0
VERTEX
  5
294
330
284
100
AcDbEntity
  8
Layer 1
 62
    40
370
    13
100
AcDbVertex
100
AcDb2dVertex
 10
311.19613413214
 20
298.5541344866395
 30
0.0
  0
VERTEX
  5
295
330
284
100
AcDbEntity
  8
Layer 1
 62
    40
370
    13
100
AcDbVertex
100
AcDb2dVertex
 10
311.1009203056664
 20
297.4940355421346
 30
0.0
  0
VERTEX
  5
296
330
284
100
AcDbEntity
  8
Layer 1
 62
    40
370
    13
100
AcDbVertex
100
AcDb2dVertex
 10
311.19613413214
 20
296.3238873287227
 30
0.0
  0
VERTEX
  5
297
330
284
100
AcDbEntity
  8
Layer 1
 62
    40
370
    13
100
AcDbVertex
100
AcDb2dVertex
 10
311.4776845606721
 20
295.0891651068092
 30
0.0
  0
VERTEX
  5
298
330
284
100
AcDbEntity
  8
Layer 1
 62
    40
370
    13
100
AcDbVertex
100
AcDb2dVertex
 10
311.9352363048068
 20
293.8367867705337
 30
0.0
  0
VERTEX
  5
299
330
284
100
AcDbEntity
  8
Layer 1
 62
    40
370
    13
100
AcDbVertex
100
AcDb2dVertex
 10
312.5508318043273
 20
292.6154788891658
 30
0.0
  0
VERTEX
  5
29A
330
284
100
AcDbEntity
  8
Layer 1
 62
    40
370
    13
100
AcDbVertex
100
AcDb2dVertex
 10
313.3008290914663
 20
291.4714272740547
 30
0.0
  0
VERTEX
  5
29B
330
284
100
AcDbEntity
  8
Layer 1
 62
    40
370
    13
100
AcDbVertex
100
AcDb2dVertex
 10
314.1566769373895
 20
290.4494181665086
 30
0.0
  0
VERTEX
  5
29C
330
284
100
AcDbEntity
  8
Layer 1
 62
    40
370
    13
100
AcDbVertex
100
AcDb2dVertex
 10
315.0851732343579
 20
289.5879289767283
 30
0.0
  0
VERTEX
  5
29D
330
284
100
AcDbEntity
  8
Layer 1
 62
    40
370
    13
100
AcDbVertex
100
AcDb2dVertex
 10
316.0507473714862
 20
288.9208292997032
 30
0.0
  0
VERTEX
  5
29E
330
284
100
AcDbEntity
  8
Layer 1
 62
    40
370
    13
100
AcDbVertex
100
AcDb2dVertex
 10
317.0162784449211
 20
288.4731606732418
 30
0.0
  0
VERTEX
  5
29F
330
284
100
AcDbEntity
  8
Layer 1
 62
    40
370
    13
100
AcDbVertex
100
AcDb2dVertex
 10
317.9451623151315
 20
288.2621916384638
 30
0.0
  0
VERTEX
  5
2A0
330
284
100
AcDbEntity
  8
Layer 1
 62
    40
370
    13
100
AcDbVertex
100
AcDb2dVertex
 10
318.8006225878127
 20
288.2964272748485
 30
0.0
  0
VERTEX
  5
2A1
330
284
100
AcDbEntity
  8
Layer 1
 62
    40
370
    13
100
AcDbVertex
100
AcDb2dVertex
 10
319.5510074481937
 20
288.5744034168146
 30
0.0
  0
VERTEX
  5
2A2
330
284
100
AcDbEntity
  8
Layer 1
 62
    40
370
    13
100
AcDbVertex
100
AcDb2dVertex
 10
320.1662153744721
 20
289.08522494989
 30
0.0
  0
VERTEX
  5
2A3
330
284
100
AcDbEntity
  8
Layer 1
 62
    40
370
    13
100
AcDbVertex
100
AcDb2dVertex
 10
320.6237671186069
 20
289.8091256387281
 30
0.0
  0
VERTEX
  5
2A4
330
284
100
AcDbEntity
  8
Layer 1
 62
    40
370
    13
100
AcDbVertex
100
AcDb2dVertex
 10
320.9053175471389
 20
290.7189538245358
 30
0.0
  0
VERTEX
  5
2A5
330
284
100
AcDbEntity
  8
Layer 1
 62
    40
370
    13
100
AcDbVertex
100
AcDb2dVertex
 10
321.0005744373061
 20
291.7790527690407
 30
0.0
  0
SEQEND
  5
2A6
330
284
100
AcDbEntity
  8
Layer 1
 62
    40
370
    13
  0
ENDBLK
  5
1B4
330
1B1
100
AcDbEntity
  8
0
100
AcDbBlockEnd
  0
BLOCK
  5
2A9
330
2A7
100
AcDbEntity
  8
0
100
AcDbBlockBegin
  2
block 8
 70
     0
 10
0.0
 20
0.0
 30
0.0
  3
block 8
  1

  0
POLYLINE
  5
2AB
330
2A7
100
AcDbEntity
  8
Layer 1
370
     0
100
AcDb2dPolyline
 66
     1
 10
0.0
 20
0.0
 30
0.0
  0
VERTEX
  5
2AC
330
2AB
100
AcDbEntity
  8
Layer 1
370
     0
100
AcDbVertex
100
AcDb2dVertex
 10
333.5389602828802
 20
402.4817176218738
 30
0.0
  0
VERTEX
  5
2AD
330
2AB
100
AcDbEntity
  8
Layer 1
370
     0
100
AcDbVertex
100
AcDb2dVertex
 10
333.5389602828802
 20
423.1235265647318
 30
0.0
  0
VERTEX
  5
2AE
330
2AB
100
AcDbEntity
  8
Layer 1
370
     0
100
AcDbVertex
100
AcDb2dVertex
 10
335.515153180605
 20
423.1235265647318
 30
0.0
  0
VERTEX
  5
2AF
330
2AB
100
AcDbEntity
  8
Layer 1
370
     0
100
AcDbVertex
100
AcDb2dVertex
 10
335.515153180605
 20
427.7812956607896
 30
0.0
  0
VERTEX
  5
2B0
330
2AB
100
AcDbEntity
  8
Layer 1
370
     0
100
AcDbVertex
100
AcDb2dVertex
 10
330.8573840845472
 20
427.7812956607896
 30
0.0
  0
VERTEX
  5
2B1
330
2AB
100
AcDbEntity
  8
Layer 1
370
     0
100
AcDbVertex
100
AcDb2dVertex
 10
330.8573840845472
 20
423.1235265647318
 30
0.0
  0
VERTEX
  5
2B2
330
2AB
100
AcDbEntity
  8
Layer 1
370
     0
100
AcDbVertex
100
AcDb2dVertex
 10
332.833404727501
 20
423.1235265647318
 30
0.0
  0
VERTEX
  5
2B3
330
2AB
100
AcDbEntity
  8
Layer 1
370
     0
100
AcDbVertex
100
AcDb2dVertex
 10
332.833404727501
 20
401.7761620664946
 30
0.0
  0
VERTEX
  5
2B4
330
2AB
100
AcDbEntity
  8
Layer 1
370
     0
100
AcDbVertex
100
AcDb2dVertex
 10
431.8888571766971
 20
401.7761620664946
 30
0.0
  0
VERTEX
  5
2B5
330
2AB
100
AcDbEntity
  8
Layer 1
370
     0
100
AcDbVertex
100
AcDb2dVertex
 10
431.8888571766971
 20
402.4817176218738
 30
0.0
  0
VERTEX
  5
2B6
330
2AB
100
AcDbEntity
  8
Layer 1
370
     0
100
AcDbVertex
100
AcDb2dVertex
 10
333.5389602828802
 20
402.4817176218738
 30
0.0
  0
SEQEND
  5
2B8
330
2AB
100
AcDbEntity
  8
Layer 1
370
     0
  0
HATCH
  5
2B7
330
2A7
100
AcDbEntity
  8
Layer 1
 62
     7
100
AcDbHatch
 10
0.0
 20
0.0
 30
0.0
210
0.0
220
0.0
230
1.0
  2
SOLID
 70
     1
 71
     0
 91
        1
 92
        1
 93
       10
 72
     1
 10
333.5389602828802
 20
402.4817176218738
 11
333.5389602828802
 21
423.1235265647318
 72
     1
 10
333.5389602828802
 20
423.1235265647318
 11
335.515153180605
 21
423.1235265647318
 72
     1
 10
335.515153180605
 20
423.1235265647318
 11
335.515153180605
 21
427.7812956607896
 72
     1
 10
335.515153180605
 20
427.7812956607896
 11
330.8573840845472
 21
427.7812956607896
 72
     1
 10
330.8573840845472
 20
427.7812956607896
 11
330.8573840845472
 21
423.1235265647318
 72
     1
 10
330.8573840845472
 20
423.1235265647318
 11
332.833404727501
 21
423.1235265647318
 72
     1
 10
332.833404727501
 20
423.1235265647318
 11
332.833404727501
 21
401.7761620664946
 72
     1
 10
332.833404727501
 20
401.7761620664946
 11
431.8888571766971
 21
401.7761620664946
 72
     1
 10
431.8888571766971
 20
401.7761620664946
 11
431.8888571766971
 21
402.4817176218738
 72
     1
 10
431.8888571766971
 20
402.4817176218738
 11
333.5389602828802
 21
402.4817176218738
 97
        0
 75
     2
 76
     1
 98
        0
  0
INSERT
  5
2BA
330
2A7
100
AcDbEntity
  8
Layer 1
100
AcDbBlockReference
  2
block 9
 10
0.0
 20
0.0
 30
0.0
  0
ENDBLK
  5
2AA
330
2A7
100
AcDbEntity
  8
0
100
AcDbBlockEnd
  0
BLOCK
  5
2BB
330
2B9
100
AcDbEntity
  8
0
100
AcDbBlockBegin
  2
block 9
 70
     0
 10
0.0
 20
0.0
 30
0.0
  3
block 9
  1

  0
SPLINE
  5
2BD
330
2B9
100
AcDbEntity
  8
Layer 1
370
     0
100
AcDbSpline
210
0.0
220
0.0
230
1.0
 70
    11
 71
     3
 72
    26
 73
    22
 74
     0
 42
0.0000000001
 43
0.0000000001
 12
1.0
 22
0.0
 32
0.0
 13
1.0
 23
0.0
 33
0.0
 40
0.0
 40
0.0
 40
0.0
 40
0.0
 40
1.0
 40
1.0
 40
1.0
 40
2.0
 40
2.0
 40
2.0
 40
3.0
 40
3.0
 40
3.0
 40
4.0
 40
4.0
 40
4.0
 40
5.0
 40
5.0
 40
5.0
 40
6.0
 40
6.0
 40
6.0
 40
7.0
 40
7.0
 40
7.0
 40
7.0
 10
437.6342690963206
 20
405.0150715133296
 30
0.0
 10
438.8197264527951
 20
405.0150715133296
 30
0.0
 10
439.5056449639083
 20
404.3460339700941
 30
0.0
 10
439.5056449639083
 20
403.3214625727808
 30
0.0
 10
439.5056449639083
 20
402.6524250295453
 30
0.0
 10
439.0650172513449
 20
402.229022794408
 30
0.0
 10
438.7604708104488
 20
402.07674957396
 30
0.0
 10
439.1328856324043
 20
401.9072508760857
 30
0.0
 10
439.5986625420101
 20
401.5262233154171
 30
0.0
 10
439.5986625420101
 20
400.7221380291597
 30
0.0
 10
439.5986625420101
 20
399.5959363150316
 30
0.0
 10
438.8197264527951
 20
398.9861544141424
 30
0.0
 10
437.7441676423001
 20
398.9861544141424
 30
0.0
 10
437.7441676423001
 20
398.9861544141424
 30
0.0
 10
435.2209797089031
 20
398.9861544141424
 30
0.0
 10
435.2209797089031
 20
398.9861544141424
 30
0.0
 10
435.2209797089031
 20
398.9861544141424
 30
0.0
 10
435.2209797089031
 20
405.0150715133296
 30
0.0
 10
435.2209797089031
 20
405.0150715133296
 30
0.0
 10
435.2209797089031
 20
405.0150715133296
 30
0.0
 10
437.6342690963206
 20
405.0150715133296
 30
0.0
 10
437.6342690963206
 20
405.0150715133296
 30
0.0
  0
SPLINE
  5
2BE
330
2B9
100
AcDbEntity
  8
Layer 1
370
     0
100
AcDbSpline
210
0.0
220
0.0
230
1.0
 70
    11
 71
     3
 72
    20
 73
    16
 74
     0
 42
0.0000000001
 43
0.0000000001
 12
1.0
 22
0.0
 32
0.0
 13
1.0
 23
0.0
 33
0.0
 40
0.0
 40
0.0
 40
0.0
 40
0.0
 40
1.0
 40
1.0
 40
1.0
 40
2.0
 40
2.0
 40
2.0
 40
3.0
 40
3.0
 40
3.0
 40
4.0
 40
4.0
 40
4.0
 40
5.0
 40
5.0
 40
5.0
 40
5.0
 10
436.3978243266645
 20
403.9650064094254
 30
0.0
 10
436.3978243266645
 20
403.9650064094254
 30
0.0
 10
436.3978243266645
 20
402.5680201901566
 30
0.0
 10
436.3978243266645
 20
402.5680201901566
 30
0.0
 10
436.3978243266645
 20
402.5680201901566
 30
0.0
 10
437.5581324860966
 20
402.5680201901566
 30
0.0
 10
437.5581324860966
 20
402.5680201901566
 30
0.0
 10
438.0576713314578
 20
402.5680201901566
 30
0.0
 10
438.3284558365984
 20
402.8474174340104
 30
0.0
 10
438.3284558365984
 20
403.2708196691476
 30
0.0
 10
438.3284558365984
 20
403.6856091655717
 30
0.0
 10
438.0576713314578
 20
403.9650064094254
 30
0.0
 10
437.5581324860966
 20
403.9650064094254
 30
0.0
 10
437.5581324860966
 20
403.9650064094254
 30
0.0
 10
436.3978243266645
 20
403.9650064094254
 30
0.0
 10
436.3978243266645
 20
403.9650064094254
 30
0.0
  0
SPLINE
  5
2BF
330
2B9
100
AcDbEntity
  8
Layer 1
370
     0
100
AcDbSpline
210
0.0
220
0.0
230
1.0
 70
    11
 71
     3
 72
    20
 73
    16
 74
     0
 42
0.0000000001
 43
0.0000000001
 12
1.0
 22
0.0
 32
0.0
 13
1.0
 23
0.0
 33
0.0
 40
0.0
 40
0.0
 40
0.0
 40
0.0
 40
1.0
 40
1.0
 40
1.0
 40
2.0
 40
2.0
 40
2.0
 40
3.0
 40
3.0
 40
3.0
 40
4.0
 40
4.0
 40
4.0
 40
5.0
 40
5.0
 40
5.0
 40
5.0
 10
436.3978243266645
 20
401.5179550862525
 30
0.0
 10
436.3978243266645
 20
401.5179550862525
 30
0.0
 10
436.3978243266645
 20
400.0362195180465
 30
0.0
 10
436.3978243266645
 20
400.0362195180465
 30
0.0
 10
436.3978243266645
 20
400.0362195180465
 30
0.0
 10
437.6342690963206
 20
400.0362195180465
 30
0.0
 10
437.6342690963206
 20
400.0362195180465
 30
0.0
 10
438.1593016482727
 20
400.0362195180465
 30
0.0
 10
438.4218179242487
 20
400.3579914363689
 30
0.0
 10
438.4218179242487
 20
400.7813936715061
 30
0.0
 10
438.4218179242487
 20
401.1961831679301
 30
0.0
 10
438.1593016482727
 20
401.5179550862525
 30
0.0
 10
437.6342690963206
 20
401.5179550862525
 30
0.0
 10
437.6342690963206
 20
401.5179550862525
 30
0.0
 10
436.3978243266645
 20
401.5179550862525
 30
0.0
 10
436.3978243266645
 20
401.5179550862525
 30
0.0
  0
HATCH
  5
2C0
330
2B9
100
AcDbEntity
  8
Layer 1
 62
     7
100
AcDbHatch
 10
0.0
 20
0.0
 30
0.0
210
0.0
220
0.0
230
1.0
  2
SOLID
 70
     1
 71
     0
 91
        3
 92
        1
 93
        1
 72
     4
 94
        3
 73
     0
 74
     1
 95
       26
 96
       22
 40
0.0
 40
0.0
 40
0.0
 40
0.0
 40
1.0
 40
1.0
 40
1.0
 40
2.0
 40
2.0
 40
2.0
 40
3.0
 40
3.0
 40
3.0
 40
4.0
 40
4.0
 40
4.0
 40
5.0
 40
5.0
 40
5.0
 40
6.0
 40
6.0
 40
6.0
 40
7.0
 40
7.0
 40
7.0
 40
7.0
 10
437.6342690963206
 20
405.0150715133296
 10
438.8197264527951
 20
405.0150715133296
 10
439.5056449639083
 20
404.3460339700941
 10
439.5056449639083
 20
403.3214625727808
 10
439.5056449639083
 20
402.6524250295453
 10
439.0650172513449
 20
402.229022794408
 10
438.7604708104488
 20
402.07674957396
 10
439.1328856324043
 20
401.9072508760857
 10
439.5986625420101
 20
401.5262233154171
 10
439.5986625420101
 20
400.7221380291597
 10
439.5986625420101
 20
399.5959363150316
 10
438.8197264527951
 20
398.9861544141424
 10
437.7441676423001
 20
398.9861544141424
 10
437.7441676423001
 20
398.9861544141424
 10
435.2209797089031
 20
398.9861544141424
 10
435.2209797089031
 20
398.9861544141424
 10
435.2209797089031
 20
398.9861544141424
 10
435.2209797089031
 20
405.0150715133296
 10
435.2209797089031
 20
405.0150715133296
 10
435.2209797089031
 20
405.0150715133296
 10
437.6342690963206
 20
405.0150715133296
 10
437.6342690963206
 20
405.0150715133296
 97
        0
 92
        1
 93
        1
 72
     4
 94
        3
 73
     0
 74
     1
 95
       20
 96
       16
 40
0.0
 40
0.0
 40
0.0
 40
0.0
 40
1.0
 40
1.0
 40
1.0
 40
2.0
 40
2.0
 40
2.0
 40
3.0
 40
3.0
 40
3.0
 40
4.0
 40
4.0
 40
4.0
 40
5.0
 40
5.0
 40
5.0
 40
5.0
 10
436.3978243266645
 20
403.9650064094254
 10
436.3978243266645
 20
403.9650064094254
 10
436.3978243266645
 20
402.5680201901566
 10
436.3978243266645
 20
402.5680201901566
 10
436.3978243266645
 20
402.5680201901566
 10
437.5581324860966
 20
402.5680201901566
 10
437.5581324860966
 20
402.5680201901566
 10
438.0576713314578
 20
402.5680201901566
 10
438.3284558365984
 20
402.8474174340104
 10
438.3284558365984
 20
403.2708196691476
 10
438.3284558365984
 20
403.6856091655717
 10
438.0576713314578
 20
403.9650064094254
 10
437.5581324860966
 20
403.9650064094254
 10
437.5581324860966
 20
403.9650064094254
 10
436.3978243266645
 20
403.9650064094254
 10
436.3978243266645
 20
403.9650064094254
 97
        0
 92
        1
 93
        1
 72
     4
 94
        3
 73
     0
 74
     1
 95
       20
 96
       16
 40
0.0
 40
0.0
 40
0.0
 40
0.0
 40
1.0
 40
1.0
 40
1.0
 40
2.0
 40
2.0
 40
2.0
 40
3.0
 40
3.0
 40
3.0
 40
4.0
 40
4.0
 40
4.0
 40
5.0
 40
5.0
 40
5.0
 40
5.0
 10
436.3978243266645
 20
401.5179550862525
 10
436.3978243266645
 20
401.5179550862525
 10
436.3978243266645
 20
400.0362195180465
 10
436.3978243266645
 20
400.0362195180465
 10
436.3978243266645
 20
400.0362195180465
 10
437.6342690963206
 20
400.0362195180465
 10
437.6342690963206
 20
400.0362195180465
 10
438.1593016482727
 20
400.0362195180465
 10
438.4218179242487
 20
400.3579914363689
 10
438.4218179242487
 20
400.7813936715061
 10
438.4218179242487
 20
401.1961831679301
 10
438.1593016482727
 20
401.5179550862525
 10
437.6342690963206
 20
401.5179550862525
 10
437.6342690963206
 20
401.5179550862525
 10
436.3978243266645
 20
401.5179550862525
 10
436.3978243266645
 20
401.5179550862525
 97
        0
 75
     2
 76
     1
 98
        0
  0
SPLINE
  5
2C1
330
2B9
100
AcDbEntity
  8
Layer 1
370
     0
100
AcDbSpline
210
0.0
220
0.0
230
1.0
 70
    11
 71
     3
 72
    29
 73
    25
 74
     0
 42
0.0000000001
 43
0.0000000001
 12
1.0
 22
0.0
 32
0.0
 13
1.0
 23
0.0
 33
0.0
 40
0.0
 40
0.0
 40
0.0
 40
0.0
 40
1.0
 40
1.0
 40
1.0
 40
2.0
 40
2.0
 40
2.0
 40
3.0
 40
3.0
 40
3.0
 40
4.0
 40
4.0
 40
4.0
 40
5.0
 40
5.0
 40
5.0
 40
6.0
 40
6.0
 40
6.0
 40
7.0
 40
7.0
 40
7.0
 40
8.0
 40
8.0
 40
8.0
 40
8.0
 10
444.3907903619926
 20
404.4307833190312
 30
0.0
 10
444.9919595241687
 20
403.8378823860197
 30
0.0
 10
445.0002277533333
 20
403.1519638749065
 30
0.0
 10
445.0002277533333
 20
402.000612963736
 30
0.0
 10
445.0002277533333
 20
400.848917543017
 30
0.0
 10
444.9919595241687
 20
400.1629990319037
 30
0.0
 10
444.3907903619926
 20
399.5704426084407
 30
0.0
 10
443.97565635602
 20
399.1639213411813
 30
0.0
 10
443.4678492814942
 20
398.9355115105092
 30
0.0
 10
442.7733180316678
 20
398.9355115105092
 30
0.0
 10
442.07913129139
 20
398.9355115105092
 30
0.0
 10
441.5709797073156
 20
399.1639213411813
 30
0.0
 10
441.1561902108915
 20
399.5704426084407
 30
0.0
 10
440.5550210487154
 20
400.1716117706168
 30
0.0
 10
440.5464083100023
 20
400.848917543017
 30
0.0
 10
440.5464083100023
 20
402.000612963736
 30
0.0
 10
440.5464083100023
 20
403.1519638749065
 30
0.0
 10
440.5550210487154
 20
403.8296141568551
 30
0.0
 10
441.1561902108915
 20
404.4307833190312
 30
0.0
 10
441.5709797073156
 20
404.8369600767422
 30
0.0
 10
442.07913129139
 20
405.0657144169627
 30
0.0
 10
442.7733180316678
 20
405.0657144169627
 30
0.0
 10
443.4678492814942
 20
405.0657144169627
 30
0.0
 10
443.97565635602
 20
404.8369600767422
 30
0.0
 10
444.3907903619926
 20
404.4307833190312
 30
0.0
  0
SPLINE
  5
2C2
330
2B9
100
AcDbEntity
  8
Layer 1
370
     0
100
AcDbSpline
210
0.0
220
0.0
230
1.0
 70
    11
 71
     3
 72
    29
 73
    25
 74
     0
 42
0.0000000001
 43
0.0000000001
 12
1.0
 22
0.0
 32
0.0
 13
1.0
 23
0.0
 33
0.0
 40
0.0
 40
0.0
 40
0.0
 40
0.0
 40
1.0
 40
1.0
 40
1.0
 40
2.0
 40
2.0
 40
2.0
 40
3.0
 40
3.0
 40
3.0
 40
4.0
 40
4.0
 40
4.0
 40
5.0
 40
5.0
 40
5.0
 40
6.0
 40
6.0
 40
6.0
 40
7.0
 40
7.0
 40
7.0
 40
8.0
 40
8.0
 40
8.0
 40
8.0
 10
442.0198756490437
 20
403.6938773947363
 30
0.0
 10
441.7911213088231
 20
403.4399738574734
 30
0.0
 10
441.7232529277637
 20
403.1519638749065
 30
0.0
 10
441.7232529277637
 20
402.000612963736
 30
0.0
 10
441.7232529277637
 20
400.848917543017
 30
0.0
 10
441.7911213088231
 20
400.5695202991632
 30
0.0
 10
442.0198756490437
 20
400.3156167619003
 30
0.0
 10
442.1890298373694
 20
400.1206243574351
 30
0.0
 10
442.4515461133454
 20
399.9852321048648
 30
0.0
 10
442.7733180316678
 20
399.9852321048648
 30
0.0
 10
443.0950899499902
 20
399.9852321048648
 30
0.0
 10
443.3576062259662
 20
400.1206243574351
 30
0.0
 10
443.5271049238405
 20
400.3156167619003
 30
0.0
 10
443.7555147545125
 20
400.5695202991632
 30
0.0
 10
443.8233831355719
 20
400.848917543017
 30
0.0
 10
443.8233831355719
 20
402.000612963736
 30
0.0
 10
443.8233831355719
 20
403.1519638749065
 30
0.0
 10
443.7555147545125
 20
403.4399738574734
 30
0.0
 10
443.5271049238405
 20
403.6938773947363
 30
0.0
 10
443.3576062259662
 20
403.8888697992014
 30
0.0
 10
443.0950899499902
 20
404.0156493130586
 30
0.0
 10
442.7733180316678
 20
404.0156493130586
 30
0.0
 10
442.4515461133454
 20
404.0156493130586
 30
0.0
 10
442.1890298373694
 20
403.8888697992014
 30
0.0
 10
442.0198756490437
 20
403.6938773947363
 30
0.0
  0
HATCH
  5
2C3
330
2B9
100
AcDbEntity
  8
Layer 1
 62
     7
100
AcDbHatch
 10
0.0
 20
0.0
 30
0.0
210
0.0
220
0.0
230
1.0
  2
SOLID
 70
     1
 71
     0
 91
        2
 92
        1
 93
        1
 72
     4
 94
        3
 73
     0
 74
     1
 95
       29
 96
       25
 40
0.0
 40
0.0
 40
0.0
 40
0.0
 40
1.0
 40
1.0
 40
1.0
 40
2.0
 40
2.0
 40
2.0
 40
3.0
 40
3.0
 40
3.0
 40
4.0
 40
4.0
 40
4.0
 40
5.0
 40
5.0
 40
5.0
 40
6.0
 40
6.0
 40
6.0
 40
7.0
 40
7.0
 40
7.0
 40
8.0
 40
8.0
 40
8.0
 40
8.0
 10
444.3907903619926
 20
404.4307833190312
 10
444.9919595241687
 20
403.8378823860197
 10
445.0002277533333
 20
403.1519638749065
 10
445.0002277533333
 20
402.000612963736
 10
445.0002277533333
 20
400.848917543017
 10
444.9919595241687
 20
400.1629990319037
 10
444.3907903619926
 20
399.5704426084407
 10
443.97565635602
 20
399.1639213411813
 10
443.4678492814942
 20
398.9355115105092
 10
442.7733180316678
 20
398.9355115105092
 10
442.07913129139
 20
398.9355115105092
 10
441.5709797073156
 20
399.1639213411813
 10
441.1561902108915
 20
399.5704426084407
 10
440.5550210487154
 20
400.1716117706168
 10
440.5464083100023
 20
400.848917543017
 10
440.5464083100023
 20
402.000612963736
 10
440.5464083100023
 20
403.1519638749065
 10
440.5550210487154
 20
403.8296141568551
 10
441.1561902108915
 20
404.4307833190312
 10
441.5709797073156
 20
404.8369600767422
 10
442.07913129139
 20
405.0657144169627
 10
442.7733180316678
 20
405.0657144169627
 10
443.4678492814942
 20
405.0657144169627
 10
443.97565635602
 20
404.8369600767422
 10
444.3907903619926
 20
404.4307833190312
 97
        0
 92
        1
 93
        1
 72
     4
 94
        3
 73
     0
 74
     1
 95
       29
 96
       25
 40
0.0
 40
0.0
 40
0.0
 40
0.0
 40
1.0
 40
1.0
 40
1.0
 40
2.0
 40
2.0
 40
2.0
 40
3.0
 40
3.0
 40
3.0
 40
4.0
 40
4.0
 40
4.0
 40
5.0
 40
5.0
 40
5.0
 40
6.0
 40
6.0
 40
6.0
 40
7.0
 40
7.0
 40
7.0
 40
8.0
 40
8.0
 40
8.0
 40
8.0
 10
442.0198756490437
 20
403.6938773947363
 10
441.7911213088231
 20
403.4399738574734
 10
441.7232529277637
 20
403.1519638749065
 10
441.7232529277637
 20
402.000612963736
 10
441.7232529277637
 20
400.848917543017
 10
441.7911213088231
 20
400.5695202991632
 10
442.0198756490437
 20
400.3156167619003
 10
442.1890298373694
 20
400.1206243574351
 10
442.4515461133454
 20
399.9852321048648
 10
442.7733180316678
 20
399.9852321048648
 10
443.0950899499902
 20
399.9852321048648
 10
443.3576062259662
 20
400.1206243574351
 10
443.5271049238405
 20
400.3156167619003
 10
443.7555147545125
 20
400.5695202991632
 10
443.8233831355719
 20
400.848917543017
 10
443.8233831355719
 20
402.000612963736
 10
443.8233831355719
 20
403.1519638749065
 10
443.7555147545125
 20
403.4399738574734
 10
443.5271049238405
 20
403.6938773947363
 10
443.3576062259662
 20
403.8888697992014
 10
443.0950899499902
 20
404.0156493130586
 10
442.7733180316678
 20
404.0156493130586
 10
442.4515461133454
 20
404.0156493130586
 10
442.1890298373694
 20
403.8888697992014
 10
442.0198756490437
 20
403.6938773947363
 97
        0
 75
     2
 76
     1
 98
        0
  0
POLYLINE
  5
2C4
330
2B9
100
AcDbEntity
  8
Layer 1
370
     0
100
AcDb2dPolyline
 66
     1
 10
0.0
 20
0.0
 30
0.0
  0
VERTEX
  5
2C5
330
2C4
100
AcDbEntity
  8
Layer 1
370
     0
100
AcDbVertex
100
AcDb2dVertex
 10
451.2909721093995
 20
398.9861544141424
 30
0.0
  0
VERTEX
  5
2C6
330
2C4
100
AcDbEntity
  8
Layer 1
370
     0
100
AcDbVertex
100
AcDb2dVertex
 10
450.3005071573901
 20
398.9861544141424
 30
0.0
  0
VERTEX
  5
2C7
330
2C4
100
AcDbEntity
  8
Layer 1
370
     0
100
AcDbVertex
100
AcDb2dVertex
 10
449.1911864111397
 20
402.6355440616675
 30
0.0
  0
VERTEX
  5
2C8
330
2C4
100
AcDbEntity
  8
Layer 1
370
     0
100
AcDbVertex
100
AcDb2dVertex
 10
448.0904784036024
 20
398.9861544141424
 30
0.0
  0
VERTEX
  5
2C9
330
2C4
100
AcDbEntity
  8
Layer 1
370
     0
100
AcDbVertex
100
AcDb2dVertex
 10
447.1082816807577
 20
398.9861544141424
 30
0.0
  0
VERTEX
  5
2CA
330
2C4
100
AcDbEntity
  8
Layer 1
370
     0
100
AcDbVertex
100
AcDb2dVertex
 10
445.4908093504329
 20
405.0150715133296
 30
0.0
  0
VERTEX
  5
2CB
330
2C4
100
AcDbEntity
  8
Layer 1
370
     0
100
AcDbVertex
100
AcDb2dVertex
 10
446.7186413813759
 20
405.0150715133296
 30
0.0
  0
VERTEX
  5
2CC
330
2C4
100
AcDbEntity
  8
Layer 1
370
     0
100
AcDbVertex
100
AcDb2dVertex
 10
447.6501952005875
 20
401.221676874521
 30
0.0
  0
VERTEX
  5
2CD
330
2C4
100
AcDbEntity
  8
Layer 1
370
     0
100
AcDbVertex
100
AcDb2dVertex
 10
448.7595159468379
 20
405.0150715133296
 30
0.0
  0
VERTEX
  5
2CE
330
2C4
100
AcDbEntity
  8
Layer 1
370
     0
100
AcDbVertex
100
AcDb2dVertex
 10
449.6314696141546
 20
405.0150715133296
 30
0.0
  0
VERTEX
  5
2CF
330
2C4
100
AcDbEntity
  8
Layer 1
370
     0
100
AcDbVertex
100
AcDb2dVertex
 10
450.7407903604051
 20
401.221676874521
 30
0.0
  0
VERTEX
  5
2D0
330
2C4
100
AcDbEntity
  8
Layer 1
370
     0
100
AcDbVertex
100
AcDb2dVertex
 10
451.6719996700681
 20
405.0150715133296
 30
0.0
  0
VERTEX
  5
2D1
330
2C4
100
AcDbEntity
  8
Layer 1
370
     0
100
AcDbVertex
100
AcDb2dVertex
 10
452.8998317010112
 20
405.0150715133296
 30
0.0
  0
VERTEX
  5
2D2
330
2C4
100
AcDbEntity
  8
Layer 1
370
     0
100
AcDbVertex
100
AcDb2dVertex
 10
451.2909721093995
 20
398.9861544141424
 30
0.0
  0
SEQEND
  5
2D3
330
2C4
100
AcDbEntity
  8
Layer 1
370
     0
  0
HATCH
  5
2D4
330
2B9
100
AcDbEntity
  8
Layer 1
 62
     7
100
AcDbHatch
 10
0.0
 20
0.0
 30
0.0
210
0.0
220
0.0
230
1.0
  2
SOLID
 70
     1
 71
     0
 91
        1
 92
        1
 93
       13
 72
     1
 10
451.2909721093995
 20
398.9861544141424
 11
450.3005071573901
 21
398.9861544141424
 72
     1
 10
450.3005071573901
 20
398.9861544141424
 11
449.1911864111397
 21
402.6355440616675
 72
     1
 10
449.1911864111397
 20
402.6355440616675
 11
448.0904784036024
 21
398.9861544141424
 72
     1
 10
448.0904784036024
 20
398.9861544141424
 11
447.1082816807577
 21
398.9861544141424
 72
     1
 10
447.1082816807577
 20
398.9861544141424
 11
445.4908093504329
 21
405.0150715133296
 72
     1
 10
445.4908093504329
 20
405.0150715133296
 11
446.7186413813759
 21
405.0150715133296
 72
     1
 10
446.7186413813759
 20
405.0150715133296
 11
447.6501952005875
 21
401.221676874521
 72
     1
 10
447.6501952005875
 20
401.221676874521
 11
448.7595159468379
 21
405.0150715133296
 72
     1
 10
448.7595159468379
 20
405.0150715133296
 11
449.6314696141546
 21
405.0150715133296
 72
     1
 10
449.6314696141546
 20
405.0150715133296
 11
450.7407903604051
 21
401.221676874521
 72
     1
 10
450.7407903604051
 20
401.221676874521
 11
451.6719996700681
 21
405.0150715133296
 72
     1
 10
451.6719996700681
 20
405.0150715133296
 11
452.8998317010112
 21
405.0150715133296
 72
     1
 10
452.8998317010112
 20
405.0150715133296
 11
451.2909721093995
 21
398.9861544141424
 97
        0
 75
     2
 76
     1
 98
        0
  0
POLYLINE
  5
2D5
330
2B9
100
AcDbEntity
  8
Layer 1
370
     0
100
AcDb2dPolyline
 66
     1
 10
0.0
 20
0.0
 30
0.0
  0
VERTEX
  5
2D6
330
2D5
100
AcDbEntity
  8
Layer 1
370
     0
100
AcDbVertex
100
AcDb2dVertex
 10
459.1144394468533
 20
398.9861544141424
 30
0.0
  0
VERTEX
  5
2D7
330
2D5
100
AcDbEntity
  8
Layer 1
370
     0
100
AcDbVertex
100
AcDb2dVertex
 10
457.937594829092
 20
398.9861544141424
 30
0.0
  0
VERTEX
  5
2D8
330
2D5
100
AcDbEntity
  8
Layer 1
370
     0
100
AcDbVertex
100
AcDb2dVertex
 10
457.937594829092
 20
402.4915390703841
 30
0.0
  0
VERTEX
  5
2D9
330
2D5
100
AcDbEntity
  8
Layer 1
370
     0
100
AcDbVertex
100
AcDb2dVertex
 10
456.785899408373
 20
400.3493786976557
 30
0.0
  0
VERTEX
  5
2DA
330
2D5
100
AcDbEntity
  8
Layer 1
370
     0
100
AcDbVertex
100
AcDb2dVertex
 10
455.9900823512803
 20
400.3493786976557
 30
0.0
  0
VERTEX
  5
2DB
330
2D5
100
AcDbEntity
  8
Layer 1
370
     0
100
AcDbVertex
100
AcDb2dVertex
 10
454.8297741918481
 20
402.4915390703841
 30
0.0
  0
VERTEX
  5
2DC
330
2D5
100
AcDbEntity
  8
Layer 1
370
     0
100
AcDbVertex
100
AcDb2dVertex
 10
454.8297741918481
 20
398.9861544141424
 30
0.0
  0
VERTEX
  5
2DD
330
2D5
100
AcDbEntity
  8
Layer 1
370
     0
100
AcDbVertex
100
AcDb2dVertex
 10
453.6529295740868
 20
398.9861544141424
 30
0.0
  0
VERTEX
  5
2DE
330
2D5
100
AcDbEntity
  8
Layer 1
370
     0
100
AcDbVertex
100
AcDb2dVertex
 10
453.6529295740868
 20
405.0150715133296
 30
0.0
  0
VERTEX
  5
2DF
330
2D5
100
AcDbEntity
  8
Layer 1
370
     0
100
AcDbVertex
100
AcDb2dVertex
 10
454.8128932239704
 20
405.0150715133296
 30
0.0
  0
VERTEX
  5
2E0
330
2D5
100
AcDbEntity
  8
Layer 1
370
     0
100
AcDbVertex
100
AcDb2dVertex
 10
456.3879908798266
 20
401.890369908208
 30
0.0
  0
VERTEX
  5
2E1
330
2D5
100
AcDbEntity
  8
Layer 1
370
     0
100
AcDbVertex
100
AcDb2dVertex
 10
457.9544757969697
 20
405.0150715133296
 30
0.0
  0
VERTEX
  5
2E2
330
2D5
100
AcDbEntity
  8
Layer 1
370
     0
100
AcDbVertex
100
AcDb2dVertex
 10
459.1144394468533
 20
405.0150715133296
 30
0.0
  0
VERTEX
  5
2E3
330
2D5
100
AcDbEntity
  8
Layer 1
370
     0
100
AcDbVertex
100
AcDb2dVertex
 10
459.1144394468533
 20
398.9861544141424
 30
0.0
  0
SEQEND
  5
2E4
330
2D5
100
AcDbEntity
  8
Layer 1
370
     0
  0
HATCH
  5
2E5
330
2B9
100
AcDbEntity
  8
Layer 1
 62
     7
100
AcDbHatch
 10
0.0
 20
0.0
 30
0.0
210
0.0
220
0.0
230
1.0
  2
SOLID
 70
     1
 71
     0
 91
        1
 92
        1
 93
       13
 72
     1
 10
459.1144394468533
 20
398.9861544141424
 11
457.937594829092
 21
398.9861544141424
 72
     1
 10
457.937594829092
 20
398.9861544141424
 11
457.937594829092
 21
402.4915390703841
 72
     1
 10
457.937594829092
 20
402.4915390703841
 11
456.785899408373
 21
400.3493786976557
 72
     1
 10
456.785899408373
 20
400.3493786976557
 11
455.9900823512803
 21
400.3493786976557
 72
     1
 10
455.9900823512803
 20
400.3493786976557
 11
454.8297741918481
 21
402.4915390703841
 72
     1
 10
454.8297741918481
 20
402.4915390703841
 11
454.8297741918481
 21
398.9861544141424
 72
     1
 10
454.8297741918481
 20
398.9861544141424
 11
453.6529295740868
 21
398.9861544141424
 72
     1
 10
453.6529295740868
 20
398.9861544141424
 11
453.6529295740868
 21
405.0150715133296
 72
     1
 10
453.6529295740868
 20
405.0150715133296
 11
454.8128932239704
 21
405.0150715133296
 72
     1
 10
454.8128932239704
 20
405.0150715133296
 11
456.3879908798266
 21
401.890369908208
 72
     1
 10
456.3879908798266
 20
401.890369908208
 11
457.9544757969697
 21
405.0150715133296
 72
     1
 10
457.9544757969697
 20
405.0150715133296
 11
459.1144394468533
 21
405.0150715133296
 72
     1
 10
459.1144394468533
 20
405.0150715133296
 11
459.1144394468533
 21
398.9861544141424
 97
        0
 75
     2
 76
     1
 98
        0
  0
POLYLINE
  5
2E6
330
2B9
100
AcDbEntity
  8
Layer 1
370
     0
100
AcDb2dPolyline
 66
     1
 10
0.0
 20
0.0
 30
0.0
  0
VERTEX
  5
2E7
330
2E6
100
AcDbEntity
  8
Layer 1
370
     0
100
AcDbVertex
100
AcDb2dVertex
 10
465.176429462699
 20
398.9861544141424
 30
0.0
  0
VERTEX
  5
2E8
330
2E6
100
AcDbEntity
  8
Layer 1
370
     0
100
AcDbVertex
100
AcDb2dVertex
 10
463.9403292025913
 20
398.9861544141424
 30
0.0
  0
VERTEX
  5
2E9
330
2E6
100
AcDbEntity
  8
Layer 1
370
     0
100
AcDbVertex
100
AcDb2dVertex
 10
463.584450838965
 20
400.0531004859242
 30
0.0
  0
VERTEX
  5
2EA
330
2E6
100
AcDbEntity
  8
Layer 1
370
     0
100
AcDbVertex
100
AcDb2dVertex
 10
461.4509032049498
 20
400.0531004859242
 30
0.0
  0
VERTEX
  5
2EB
330
2E6
100
AcDbEntity
  8
Layer 1
370
     0
100
AcDbVertex
100
AcDb2dVertex
 10
461.0867566121589
 20
398.9861544141424
 30
0.0
  0
VERTEX
  5
2EC
330
2E6
100
AcDbEntity
  8
Layer 1
370
     0
100
AcDbVertex
100
AcDb2dVertex
 10
459.8503118425027
 20
398.9861544141424
 30
0.0
  0
VERTEX
  5
2ED
330
2E6
100
AcDbEntity
  8
Layer 1
370
     0
100
AcDbVertex
100
AcDb2dVertex
 10
462.0520723671259
 20
405.0150715133296
 30
0.0
  0
VERTEX
  5
2EE
330
2E6
100
AcDbEntity
  8
Layer 1
370
     0
100
AcDbVertex
100
AcDb2dVertex
 10
462.9750134476243
 20
405.0150715133296
 30
0.0
  0
VERTEX
  5
2EF
330
2E6
100
AcDbEntity
  8
Layer 1
370
     0
100
AcDbVertex
100
AcDb2dVertex
 10
465.176429462699
 20
398.9861544141424
 30
0.0
  0
SEQEND
  5
2F0
330
2E6
100
AcDbEntity
  8
Layer 1
370
     0
  0
POLYLINE
  5
2F1
330
2B9
100
AcDbEntity
  8
Layer 1
370
     0
100
AcDb2dPolyline
 66
     1
 10
0.0
 20
0.0
 30
0.0
  0
VERTEX
  5
2F2
330
2F1
100
AcDbEntity
  8
Layer 1
370
     0
100
AcDbVertex
100
AcDb2dVertex
 10
461.7726751232721
 20
401.0435654379336
 30
0.0
  0
VERTEX
  5
2F3
330
2F1
100
AcDbEntity
  8
Layer 1
370
     0
100
AcDbVertex
100
AcDb2dVertex
 10
463.2544106914781
 20
401.0435654379336
 30
0.0
  0
VERTEX
  5
2F4
330
2F1
100
AcDbEntity
  8
Layer 1
370
     0
100
AcDbVertex
100
AcDb2dVertex
 10
462.5175047671831
 20
403.228444994679
 30
0.0
  0
VERTEX
  5
2F5
330
2F1
100
AcDbEntity
  8
Layer 1
370
     0
100
AcDbVertex
100
AcDb2dVertex
 10
461.7726751232721
 20
401.0435654379336
 30
0.0
  0
SEQEND
  5
2F6
330
2F1
100
AcDbEntity
  8
Layer 1
370
     0
  0
HATCH
  5
2F7
330
2B9
100
AcDbEntity
  8
Layer 1
 62
     7
100
AcDbHatch
 10
0.0
 20
0.0
 30
0.0
210
0.0
220
0.0
230
1.0
  2
SOLID
 70
     1
 71
     0
 91
        2
 92
        1
 93
        8
 72
     1
 10
465.176429462699
 20
398.9861544141424
 11
463.9403292025913
 21
398.9861544141424
 72
     1
 10
463.9403292025913
 20
398.9861544141424
 11
463.584450838965
 21
400.0531004859242
 72
     1
 10
463.584450838965
 20
400.0531004859242
 11
461.4509032049498
 21
400.0531004859242
 72
     1
 10
461.4509032049498
 20
400.0531004859242
 11
461.0867566121589
 21
398.9861544141424
 72
     1
 10
461.0867566121589
 20
398.9861544141424
 11
459.8503118425027
 21
398.9861544141424
 72
     1
 10
459.8503118425027
 20
398.9861544141424
 11
462.0520723671259
 21
405.0150715133296
 72
     1
 10
462.0520723671259
 20
405.0150715133296
 11
462.9750134476243
 21
405.0150715133296
 72
     1
 10
462.9750134476243
 20
405.0150715133296
 11
465.176429462699
 21
398.9861544141424
 97
        0
 92
        1
 93
        3
 72
     1
 10
461.7726751232721
 20
401.0435654379336
 11
463.2544106914781
 21
401.0435654379336
 72
     1
 10
463.2544106914781
 20
401.0435654379336
 11
462.5175047671831
 21
403.228444994679
 72
     1
 10
462.5175047671831
 20
403.228444994679
 11
461.7726751232721
 21
401.0435654379336
 97
        0
 75
     2
 76
     1
 98
        0
  0
SPLINE
  5
2F8
330
2B9
100
AcDbEntity
  8
Layer 1
370
     0
100
AcDbSpline
210
0.0
220
0.0
230
1.0
 70
    11
 71
     3
 72
    47
 73
    43
 74
     0
 42
0.0000000001
 43
0.0000000001
 12
1.0
 22
0.0
 32
0.0
 13
1.0
 23
0.0
 33
0.0
 40
0.0
 40
0.0
 40
0.0
 40
0.0
 40
1.0
 40
1.0
 40
1.0
 40
2.0
 40
2.0
 40
2.0
 40
3.0
 40
3.0
 40
3.0
 40
4.0
 40
4.0
 40
4.0
 40
5.0
 40
5.0
 40
5.0
 40
6.0
 40
6.0
 40
6.0
 40
7.0
 40
7.0
 40
7.0
 40
8.0
 40
8.0
 40
8.0
 40
9.0
 40
9.0
 40
9.0
 40
10.0
 40
10.0
 40
10.0
 40
11.0
 40
11.0
 40
11.0
 40
12.0
 40
12.0
 40
12.0
 40
13.0
 40
13.0
 40
13.0
 40
14.0
 40
14.0
 40
14.0
 40
14.0
 10
470.0615748607833
 20
403.1605766136196
 30
0.0
 10
470.0615748607833
 20
403.1605766136196
 30
0.0
 10
468.8678492751442
 20
403.1605766136196
 30
0.0
 10
468.8678492751442
 20
403.1605766136196
 30
0.0
 10
468.748993480903
 20
403.6518472298162
 30
0.0
 10
468.4358343012938
 20
404.0156493130586
 30
0.0
 10
467.8515461069954
 20
404.0156493130586
 30
0.0
 10
467.5297741886731
 20
404.0156493130586
 30
0.0
 10
467.2672579126971
 20
403.897138028366
 30
0.0
 10
467.0981037243714
 20
403.7024901334494
 30
0.0
 10
466.8779621228639
 20
403.4485865961865
 30
0.0
 10
466.8014810030913
 20
403.1519638749065
 30
0.0
 10
466.8014810030913
 20
402.000612963736
 30
0.0
 10
466.8014810030913
 20
400.848917543017
 30
0.0
 10
466.8779621228639
 20
400.5526393312855
 30
0.0
 10
467.0981037243714
 20
400.2987357940225
 30
0.0
 10
467.2672579126971
 20
400.1037433895574
 30
0.0
 10
467.5297741886731
 20
399.9852321048648
 30
0.0
 10
467.8515461069954
 20
399.9852321048648
 30
0.0
 10
468.4358343012938
 20
399.9852321048648
 30
0.0
 10
468.748993480903
 20
400.3493786976557
 30
0.0
 10
468.8678492751442
 20
400.8406493138523
 30
0.0
 10
468.8678492751442
 20
400.8406493138523
 30
0.0
 10
470.0615748607833
 20
400.8406493138523
 30
0.0
 10
470.0615748607833
 20
400.8406493138523
 30
0.0
 10
469.8500459979889
 20
399.5787108376053
 30
0.0
 10
468.9777478211236
 20
398.9355115105092
 30
0.0
 10
467.8515461069954
 20
398.9355115105092
 30
0.0
 10
467.1573593667176
 20
398.9355115105092
 30
0.0
 10
466.6492077826433
 20
399.1639213411813
 30
0.0
 10
466.2344182862192
 20
399.5704426084407
 30
0.0
 10
465.6332491240431
 20
400.1716117706168
 30
0.0
 10
465.6246363853299
 20
400.848917543017
 30
0.0
 10
465.6246363853299
 20
402.000612963736
 30
0.0
 10
465.6246363853299
 20
403.1519638749065
 30
0.0
 10
465.6332491240431
 20
403.8296141568551
 30
0.0
 10
466.2344182862192
 20
404.4307833190312
 30
0.0
 10
466.6492077826433
 20
404.8369600767422
 30
0.0
 10
467.1573593667176
 20
405.0657144169627
 30
0.0
 10
467.8515461069954
 20
405.0657144169627
 30
0.0
 10
468.9777478211236
 20
405.0657144169627
 30
0.0
 10
469.8500459979889
 20
404.4221705803181
 30
0.0
 10
470.0615748607833
 20
403.1605766136196
 30
0.0
  0
HATCH
  5
2F9
330
2B9
100
AcDbEntity
  8
Layer 1
 62
     7
100
AcDbHatch
 10
0.0
 20
0.0
 30
0.0
210
0.0
220
0.0
230
1.0
  2
SOLID
 70
     1
 71
     0
 91
        1
 92
        1
 93
        1
 72
     4
 94
        3
 73
     0
 74
     1
 95
       47
 96
       43
 40
0.0
 40
0.0
 40
0.0
 40
0.0
 40
1.0
 40
1.0
 40
1.0
 40
2.0
 40
2.0
 40
2.0
 40
3.0
 40
3.0
 40
3.0
 40
4.0
 40
4.0
 40
4.0
 40
5.0
 40
5.0
 40
5.0
 40
6.0
 40
6.0
 40
6.0
 40
7.0
 40
7.0
 40
7.0
 40
8.0
 40
8.0
 40
8.0
 40
9.0
 40
9.0
 40
9.0
 40
10.0
 40
10.0
 40
10.0
 40
11.0
 40
11.0
 40
11.0
 40
12.0
 40
12.0
 40
12.0
 40
13.0
 40
13.0
 40
13.0
 40
14.0
 40
14.0
 40
14.0
 40
14.0
 10
470.0615748607833
 20
403.1605766136196
 10
470.0615748607833
 20
403.1605766136196
 10
468.8678492751442
 20
403.1605766136196
 10
468.8678492751442
 20
403.1605766136196
 10
468.748993480903
 20
403.6518472298162
 10
468.4358343012938
 20
404.0156493130586
 10
467.8515461069954
 20
404.0156493130586
 10
467.5297741886731
 20
404.0156493130586
 10
467.2672579126971
 20
403.897138028366
 10
467.0981037243714
 20
403.7024901334494
 10
466.8779621228639
 20
403.4485865961865
 10
466.8014810030913
 20
403.1519638749065
 10
466.8014810030913
 20
402.000612963736
 10
466.8014810030913
 20
400.848917543017
 10
466.8779621228639
 20
400.5526393312855
 10
467.0981037243714
 20
400.2987357940225
 10
467.2672579126971
 20
400.1037433895574
 10
467.5297741886731
 20
399.9852321048648
 10
467.8515461069954
 20
399.9852321048648
 10
468.4358343012938
 20
399.9852321048648
 10
468.748993480903
 20
400.3493786976557
 10
468.8678492751442
 20
400.8406493138523
 10
468.8678492751442
 20
400.8406493138523
 10
470.0615748607833
 20
400.8406493138523
 10
470.0615748607833
 20
400.8406493138523
 10
469.8500459979889
 20
399.5787108376053
 10
468.9777478211236
 20
398.9355115105092
 10
467.8515461069954
 20
398.9355115105092
 10
467.1573593667176
 20
398.9355115105092
 10
466.6492077826433
 20
399.1639213411813
 10
466.2344182862192
 20
399.5704426084407
 10
465.6332491240431
 20
400.1716117706168
 10
465.6246363853299
 20
400.848917543017
 10
465.6246363853299
 20
402.000612963736
 10
465.6246363853299
 20
403.1519638749065
 10
465.6332491240431
 20
403.8296141568551
 10
466.2344182862192
 20
404.4307833190312
 10
466.6492077826433
 20
404.8369600767422
 10
467.1573593667176
 20
405.0657144169627
 10
467.8515461069954
 20
405.0657144169627
 10
468.9777478211236
 20
405.0657144169627
 10
469.8500459979889
 20
404.4221705803181
 10
470.0615748607833
 20
403.1605766136196
 97
        0
 75
     2
 76
     1
 98
        0
  0
SPLINE
  5
2FA
330
2B9
100
AcDbEntity
  8
Layer 1
370
     0
100
AcDbSpline
210
0.0
220
0.0
230
1.0
 70
    11
 71
     3
 72
    17
 73
    13
 74
     0
 42
0.0000000001
 43
0.0000000001
 12
1.0
 22
0.0
 32
0.0
 13
1.0
 23
0.0
 33
0.0
 40
0.0
 40
0.0
 40
0.0
 40
0.0
 40
1.0
 40
1.0
 40
1.0
 40
2.0
 40
2.0
 40
2.0
 40
3.0
 40
3.0
 40
3.0
 40
4.0
 40
4.0
 40
4.0
 40
4.0
 10
470.6655000993475
 20
403.5629637662968
 30
0.0
 10
470.6655000993475
 20
404.5499836228208
 30
0.0
 10
471.4654512710226
 20
405.3499347944959
 30
0.0
 10
472.4524711275466
 20
405.3499347944959
 30
0.0
 10
473.4398354936192
 20
405.3499347944959
 30
0.0
 10
474.2394421557457
 20
404.5499836228208
 30
0.0
 10
474.2394421557457
 20
403.5629637662968
 30
0.0
 10
474.2394421557457
 20
402.5755994002242
 30
0.0
 10
473.4398354936192
 20
401.7759927380977
 30
0.0
 10
472.4524711275466
 20
401.7759927380977
 30
0.0
 10
471.4654512710226
 20
401.7759927380977
 30
0.0
 10
470.6655000993475
 20
402.5755994002242
 30
0.0
 10
470.6655000993475
 20
403.5629637662968
 30
0.0
  0
SPLINE
  5
2FB
330
2B9
100
AcDbEntity
  8
Layer 1
370
     0
100
AcDbSpline
210
0.0
220
0.0
230
1.0
 70
    11
 71
     3
 72
    17
 73
    13
 74
     0
 42
0.0000000001
 43
0.0000000001
 12
1.0
 22
0.0
 32
0.0
 13
1.0
 23
0.0
 33
0.0
 40
0.0
 40
0.0
 40
0.0
 40
0.0
 40
1.0
 40
1.0
 40
1.0
 40
2.0
 40
2.0
 40
2.0
 40
3.0
 40
3.0
 40
3.0
 40
4.0
 40
4.0
 40
4.0
 40
4.0
 10
473.8150063919629
 20
403.5629637662968
 30
0.0
 10
473.8150063919629
 20
404.3577472947439
 30
0.0
 10
473.2224499685
 20
404.9499592086584
 30
0.0
 10
472.4524711275466
 20
404.9499592086584
 30
0.0
 10
471.6824922865933
 20
404.9499592086584
 30
0.0
 10
471.0902803726788
 20
404.3577472947439
 30
0.0
 10
471.0902803726788
 20
403.5629637662968
 30
0.0
 10
471.0902803726788
 20
402.7681802378497
 30
0.0
 10
471.6824922865933
 20
402.1759683239352
 30
0.0
 10
472.4524711275466
 20
402.1759683239352
 30
0.0
 10
473.2224499685
 20
402.1759683239352
 30
0.0
 10
473.8150063919629
 20
402.7681802378497
 30
0.0
 10
473.8150063919629
 20
403.5629637662968
 30
0.0
  0
SPLINE
  5
2FC
330
2B9
100
AcDbEntity
  8
Layer 1
370
     0
100
AcDbSpline
210
0.0
220
0.0
230
1.0
 70
    11
 71
     3
 72
    35
 73
    31
 74
     0
 42
0.0000000001
 43
0.0000000001
 12
1.0
 22
0.0
 32
0.0
 13
1.0
 23
0.0
 33
0.0
 40
0.0
 40
0.0
 40
0.0
 40
0.0
 40
1.0
 40
1.0
 40
1.0
 40
2.0
 40
2.0
 40
2.0
 40
3.0
 40
3.0
 40
3.0
 40
4.0
 40
4.0
 40
4.0
 40
5.0
 40
5.0
 40
5.0
 40
6.0
 40
6.0
 40
6.0
 40
7.0
 40
7.0
 40
7.0
 40
8.0
 40
8.0
 40
8.0
 40
9.0
 40
9.0
 40
9.0
 40
10.0
 40
10.0
 40
10.0
 40
10.0
 10
471.8010035712859
 20
404.5155326679683
 30
0.0
 10
471.8010035712859
 20
404.5155326679683
 30
0.0
 10
472.5758055459186
 20
404.5155326679683
 30
0.0
 10
472.5758055459186
 20
404.5155326679683
 30
0.0
 10
472.9609672211695
 20
404.5155326679683
 30
0.0
 10
473.2076360579134
 20
404.2340683668235
 30
0.0
 10
473.2076360579134
 20
403.918153110826
 30
0.0
 10
473.2076360579134
 20
403.6566703634956
 30
0.0
 10
473.0398599077817
 20
403.4888942133639
 30
0.0
 10
472.8572698470635
 20
403.414824660431
 30
0.0
 10
472.8572698470635
 20
403.414824660431
 30
0.0
 10
473.257245432901
 20
402.6152179983046
 30
0.0
 10
473.257245432901
 20
402.6152179983046
 30
0.0
 10
473.257245432901
 20
402.6152179983046
 30
0.0
 10
472.7732095172234
 20
402.6152179983046
 30
0.0
 10
472.7732095172234
 20
402.6152179983046
 30
0.0
 10
472.7732095172234
 20
402.6152179983046
 30
0.0
 10
472.4280109496013
 20
403.3507458844054
 30
0.0
 10
472.4280109496013
 20
403.3507458844054
 30
0.0
 10
472.4280109496013
 20
403.3507458844054
 30
0.0
 10
472.2254393350686
 20
403.3507458844054
 30
0.0
 10
472.2254393350686
 20
403.3507458844054
 30
0.0
 10
472.2254393350686
 20
403.3507458844054
 30
0.0
 10
472.2254393350686
 20
402.6152179983046
 30
0.0
 10
472.2254393350686
 20
402.6152179983046
 30
0.0
 10
472.2254393350686
 20
402.6152179983046
 30
0.0
 10
471.8010035712859
 20
402.6152179983046
 30
0.0
 10
471.8010035712859
 20
402.6152179983046
 30
0.0
 10
471.8010035712859
 20
402.6152179983046
 30
0.0
 10
471.8010035712859
 20
404.5155326679683
 30
0.0
 10
471.8010035712859
 20
404.5155326679683
 30
0.0
  0
SPLINE
  5
2FD
330
2B9
100
AcDbEntity
  8
Layer 1
370
     0
100
AcDbSpline
210
0.0
220
0.0
230
1.0
 70
    11
 71
     3
 72
    20
 73
    16
 74
     0
 42
0.0000000001
 43
0.0000000001
 12
1.0
 22
0.0
 32
0.0
 13
1.0
 23
0.0
 33
0.0
 40
0.0
 40
0.0
 40
0.0
 40
0.0
 40
1.0
 40
1.0
 40
1.0
 40
2.0
 40
2.0
 40
2.0
 40
3.0
 40
3.0
 40
3.0
 40
4.0
 40
4.0
 40
4.0
 40
5.0
 40
5.0
 40
5.0
 40
5.0
 10
472.5217175468002
 20
403.6714842740822
 30
0.0
 10
472.6795029200246
 20
403.6714842740822
 30
0.0
 10
472.7832002941306
 20
403.7851724250954
 30
0.0
 10
472.7832002941306
 20
403.918153110826
 30
0.0
 10
472.7832002941306
 20
404.0514783061052
 30
0.0
 10
472.6795029200246
 20
404.1651664571185
 30
0.0
 10
472.5217175468002
 20
404.1651664571185
 30
0.0
 10
472.5217175468002
 20
404.1651664571185
 30
0.0
 10
472.2254393350686
 20
404.1651664571185
 30
0.0
 10
472.2254393350686
 20
404.1651664571185
 30
0.0
 10
472.2254393350686
 20
404.1651664571185
 30
0.0
 10
472.2254393350686
 20
403.6714842740822
 30
0.0
 10
472.2254393350686
 20
403.6714842740822
 30
0.0
 10
472.2254393350686
 20
403.6714842740822
 30
0.0
 10
472.5217175468002
 20
403.6714842740822
 30
0.0
 10
472.5217175468002
 20
403.6714842740822
 30
0.0
  0
HATCH
  5
2FE
330
2B9
100
AcDbEntity
  8
Layer 1
 62
     7
100
AcDbHatch
 10
0.0
 20
0.0
 30
0.0
210
0.0
220
0.0
230
1.0
  2
SOLID
 70
     1
 71
     0
 91
        4
 92
        1
 93
        1
 72
     4
 94
        3
 73
     0
 74
     1
 95
       17
 96
       13
 40
0.0
 40
0.0
 40
0.0
 40
0.0
 40
1.0
 40
1.0
 40
1.0
 40
2.0
 40
2.0
 40
2.0
 40
3.0
 40
3.0
 40
3.0
 40
4.0
 40
4.0
 40
4.0
 40
4.0
 10
470.6655000993475
 20
403.5629637662968
 10
470.6655000993475
 20
404.5499836228208
 10
471.4654512710226
 20
405.3499347944959
 10
472.4524711275466
 20
405.3499347944959
 10
473.4398354936192
 20
405.3499347944959
 10
474.2394421557457
 20
404.5499836228208
 10
474.2394421557457
 20
403.5629637662968
 10
474.2394421557457
 20
402.5755994002242
 10
473.4398354936192
 20
401.7759927380977
 10
472.4524711275466
 20
401.7759927380977
 10
471.4654512710226
 20
401.7759927380977
 10
470.6655000993475
 20
402.5755994002242
 10
470.6655000993475
 20
403.5629637662968
 97
        0
 92
        1
 93
        1
 72
     4
 94
        3
 73
     0
 74
     1
 95
       17
 96
       13
 40
0.0
 40
0.0
 40
0.0
 40
0.0
 40
1.0
 40
1.0
 40
1.0
 40
2.0
 40
2.0
 40
2.0
 40
3.0
 40
3.0
 40
3.0
 40
4.0
 40
4.0
 40
4.0
 40
4.0
 10
473.8150063919629
 20
403.5629637662968
 10
473.8150063919629
 20
404.3577472947439
 10
473.2224499685
 20
404.9499592086584
 10
472.4524711275466
 20
404.9499592086584
 10
471.6824922865933
 20
404.9499592086584
 10
471.0902803726788
 20
404.3577472947439
 10
471.0902803726788
 20
403.5629637662968
 10
471.0902803726788
 20
402.7681802378497
 10
471.6824922865933
 20
402.1759683239352
 10
472.4524711275466
 20
402.1759683239352
 10
473.2224499685
 20
402.1759683239352
 10
473.8150063919629
 20
402.7681802378497
 10
473.8150063919629
 20
403.5629637662968
 97
        0
 92
        1
 93
        1
 72
     4
 94
        3
 73
     0
 74
     1
 95
       35
 96
       31
 40
0.0
 40
0.0
 40
0.0
 40
0.0
 40
1.0
 40
1.0
 40
1.0
 40
2.0
 40
2.0
 40
2.0
 40
3.0
 40
3.0
 40
3.0
 40
4.0
 40
4.0
 40
4.0
 40
5.0
 40
5.0
 40
5.0
 40
6.0
 40
6.0
 40
6.0
 40
7.0
 40
7.0
 40
7.0
 40
8.0
 40
8.0
 40
8.0
 40
9.0
 40
9.0
 40
9.0
 40
10.0
 40
10.0
 40
10.0
 40
10.0
 10
471.8010035712859
 20
404.5155326679683
 10
471.8010035712859
 20
404.5155326679683
 10
472.5758055459186
 20
404.5155326679683
 10
472.5758055459186
 20
404.5155326679683
 10
472.9609672211695
 20
404.5155326679683
 10
473.2076360579134
 20
404.2340683668235
 10
473.2076360579134
 20
403.918153110826
 10
473.2076360579134
 20
403.6566703634956
 10
473.0398599077817
 20
403.4888942133639
 10
472.8572698470635
 20
403.414824660431
 10
472.8572698470635
 20
403.414824660431
 10
473.257245432901
 20
402.6152179983046
 10
473.257245432901
 20
402.6152179983046
 10
473.257245432901
 20
402.6152179983046
 10
472.7732095172234
 20
402.6152179983046
 10
472.7732095172234
 20
402.6152179983046
 10
472.7732095172234
 20
402.6152179983046
 10
472.4280109496013
 20
403.3507458844054
 10
472.4280109496013
 20
403.3507458844054
 10
472.4280109496013
 20
403.3507458844054
 10
472.2254393350686
 20
403.3507458844054
 10
472.2254393350686
 20
403.3507458844054
 10
472.2254393350686
 20
403.3507458844054
 10
472.2254393350686
 20
402.6152179983046
 10
472.2254393350686
 20
402.6152179983046
 10
472.2254393350686
 20
402.6152179983046
 10
471.8010035712859
 20
402.6152179983046
 10
471.8010035712859
 20
402.6152179983046
 10
471.8010035712859
 20
402.6152179983046
 10
471.8010035712859
 20
404.5155326679683
 10
471.8010035712859
 20
404.5155326679683
 97
        0
 92
        1
 93
        1
 72
     4
 94
        3
 73
     0
 74
     1
 95
       20
 96
       16
 40
0.0
 40
0.0
 40
0.0
 40
0.0
 40
1.0
 40
1.0
 40
1.0
 40
2.0
 40
2.0
 40
2.0
 40
3.0
 40
3.0
 40
3.0
 40
4.0
 40
4.0
 40
4.0
 40
5.0
 40
5.0
 40
5.0
 40
5.0
 10
472.5217175468002
 20
403.6714842740822
 10
472.6795029200246
 20
403.6714842740822
 10
472.7832002941306
 20
403.7851724250954
 10
472.7832002941306
 20
403.918153110826
 10
472.7832002941306
 20
404.0514783061052
 10
472.6795029200246
 20
404.1651664571185
 10
472.5217175468002
 20
404.1651664571185
 10
472.5217175468002
 20
404.1651664571185
 10
472.2254393350686
 20
404.1651664571185
 10
472.2254393350686
 20
404.1651664571185
 10
472.2254393350686
 20
404.1651664571185
 10
472.2254393350686
 20
403.6714842740822
 10
472.2254393350686
 20
403.6714842740822
 10
472.2254393350686
 20
403.6714842740822
 10
472.5217175468002
 20
403.6714842740822
 10
472.5217175468002
 20
403.6714842740822
 97
        0
 75
     2
 76
     1
 98
        0
  0
SPLINE
  5
2FF
330
2B9
100
AcDbEntity
  8
Layer 1
370
     0
100
AcDbSpline
210
0.0
220
0.0
230
1.0
 70
    11
 71
     3
 72
    26
 73
    22
 74
     0
 42
0.0000000001
 43
0.0000000001
 12
1.0
 22
0.0
 32
0.0
 13
1.0
 23
0.0
 33
0.0
 40
0.0
 40
0.0
 40
0.0
 40
0.0
 40
1.0
 40
1.0
 40
1.0
 40
2.0
 40
2.0
 40
2.0
 40
3.0
 40
3.0
 40
3.0
 40
4.0
 40
4.0
 40
4.0
 40
5.0
 40
5.0
 40
5.0
 40
6.0
 40
6.0
 40
6.0
 40
7.0
 40
7.0
 40
7.0
 40
7.0
 10
479.7798447151245
 20
405.0150715133296
 30
0.0
 10
480.8299098190287
 20
405.0150715133296
 30
0.0
 10
481.5582030046104
 20
404.4139023511535
 30
0.0
 10
481.5582030046104
 20
403.4062119217179
 30
0.0
 10
481.5582030046104
 20
402.7709363142378
 30
0.0
 10
481.1771754439418
 20
402.2713974688766
 30
0.0
 10
480.6690238598675
 20
402.0853623126731
 30
0.0
 10
481.2446993154527
 20
401.8734889403303
 30
0.0
 10
481.6512205827122
 20
401.373950094969
 30
0.0
 10
481.6512205827122
 20
400.6542696481004
 30
0.0
 10
481.6512205827122
 20
399.5618298697276
 30
0.0
 10
480.9232719066789
 20
398.9861544141424
 30
0.0
 10
479.8563258348971
 20
398.9861544141424
 30
0.0
 10
479.8563258348971
 20
398.9861544141424
 30
0.0
 10
477.510904828539
 20
398.9861544141424
 30
0.0
 10
477.510904828539
 20
398.9861544141424
 30
0.0
 10
477.510904828539
 20
398.9861544141424
 30
0.0
 10
477.510904828539
 20
405.0150715133296
 30
0.0
 10
477.510904828539
 20
405.0150715133296
 30
0.0
 10
477.510904828539
 20
405.0150715133296
 30
0.0
 10
479.7798447151245
 20
405.0150715133296
 30
0.0
 10
479.7798447151245
 20
405.0150715133296
 30
0.0
  0
SPLINE
  5
300
330
2B9
100
AcDbEntity
  8
Layer 1
370
     0
100
AcDbSpline
210
0.0
220
0.0
230
1.0
 70
    11
 71
     3
 72
    20
 73
    16
 74
     0
 42
0.0000000001
 43
0.0000000001
 12
1.0
 22
0.0
 32
0.0
 13
1.0
 23
0.0
 33
0.0
 40
0.0
 40
0.0
 40
0.0
 40
0.0
 40
1.0
 40
1.0
 40
1.0
 40
2.0
 40
2.0
 40
2.0
 40
3.0
 40
3.0
 40
3.0
 40
4.0
 40
4.0
 40
4.0
 40
5.0
 40
5.0
 40
5.0
 40
5.0
 10
478.1541041556351
 20
404.4390515481958
 30
0.0
 10
478.1541041556351
 20
404.4390515481958
 30
0.0
 10
478.1541041556351
 20
402.3478785886492
 30
0.0
 10
478.1541041556351
 20
402.3478785886492
 30
0.0
 10
478.1541041556351
 20
402.3478785886492
 30
0.0
 10
479.7292018114914
 20
402.3478785886492
 30
0.0
 10
479.7292018114914
 20
402.3478785886492
 30
0.0
 10
480.3982393547269
 20
402.3478785886492
 30
0.0
 10
480.9146591679658
 20
402.6779187361361
 30
0.0
 10
480.9146591679658
 20
403.3975991830048
 30
0.0
 10
480.9146591679658
 20
404.1172796298735
 30
0.0
 10
480.3982393547269
 20
404.4390515481958
 30
0.0
 10
479.7292018114914
 20
404.4390515481958
 30
0.0
 10
479.7292018114914
 20
404.4390515481958
 30
0.0
 10
478.1541041556351
 20
404.4390515481958
 30
0.0
 10
478.1541041556351
 20
404.4390515481958
 30
0.0
  0
SPLINE
  5
301
330
2B9
100
AcDbEntity
  8
Layer 1
370
     0
100
AcDbSpline
210
0.0
220
0.0
230
1.0
 70
    11
 71
     3
 72
    20
 73
    16
 74
     0
 42
0.0000000001
 43
0.0000000001
 12
1.0
 22
0.0
 32
0.0
 13
1.0
 23
0.0
 33
0.0
 40
0.0
 40
0.0
 40
0.0
 40
0.0
 40
1.0
 40
1.0
 40
1.0
 40
2.0
 40
2.0
 40
2.0
 40
3.0
 40
3.0
 40
3.0
 40
4.0
 40
4.0
 40
4.0
 40
5.0
 40
5.0
 40
5.0
 40
5.0
 10
478.1541041556351
 20
401.7718586235154
 30
0.0
 10
478.1541041556351
 20
401.7718586235154
 30
0.0
 10
478.1541041556351
 20
399.5618298697276
 30
0.0
 10
478.1541041556351
 20
399.5618298697276
 30
0.0
 10
478.1541041556351
 20
399.5618298697276
 30
0.0
 10
479.7970701925507
 20
399.5618298697276
 30
0.0
 10
479.7970701925507
 20
399.5618298697276
 30
0.0
 10
480.5422443460103
 20
399.5618298697276
 30
0.0
 10
481.0076767460675
 20
399.993844843578
 30
0.0
 10
481.0076767460675
 20
400.671150615978
 30
0.0
 10
481.0076767460675
 20
401.3484563883782
 30
0.0
 10
480.5422443460103
 20
401.7718586235154
 30
0.0
 10
479.7970701925507
 20
401.7718586235154
 30
0.0
 10
479.7970701925507
 20
401.7718586235154
 30
0.0
 10
478.1541041556351
 20
401.7718586235154
 30
0.0
 10
478.1541041556351
 20
401.7718586235154
 30
0.0
  0
HATCH
  5
302
330
2B9
100
AcDbEntity
  8
Layer 1
 62
     7
100
AcDbHatch
 10
0.0
 20
0.0
 30
0.0
210
0.0
220
0.0
230
1.0
  2
SOLID
 70
     1
 71
     0
 91
        3
 92
        1
 93
        1
 72
     4
 94
        3
 73
     0
 74
     1
 95
       26
 96
       22
 40
0.0
 40
0.0
 40
0.0
 40
0.0
 40
1.0
 40
1.0
 40
1.0
 40
2.0
 40
2.0
 40
2.0
 40
3.0
 40
3.0
 40
3.0
 40
4.0
 40
4.0
 40
4.0
 40
5.0
 40
5.0
 40
5.0
 40
6.0
 40
6.0
 40
6.0
 40
7.0
 40
7.0
 40
7.0
 40
7.0
 10
479.7798447151245
 20
405.0150715133296
 10
480.8299098190287
 20
405.0150715133296
 10
481.5582030046104
 20
404.4139023511535
 10
481.5582030046104
 20
403.4062119217179
 10
481.5582030046104
 20
402.7709363142378
 10
481.1771754439418
 20
402.2713974688766
 10
480.6690238598675
 20
402.0853623126731
 10
481.2446993154527
 20
401.8734889403303
 10
481.6512205827122
 20
401.373950094969
 10
481.6512205827122
 20
400.6542696481004
 10
481.6512205827122
 20
399.5618298697276
 10
480.9232719066789
 20
398.9861544141424
 10
479.8563258348971
 20
398.9861544141424
 10
479.8563258348971
 20
398.9861544141424
 10
477.510904828539
 20
398.9861544141424
 10
477.510904828539
 20
398.9861544141424
 10
477.510904828539
 20
398.9861544141424
 10
477.510904828539
 20
405.0150715133296
 10
477.510904828539
 20
405.0150715133296
 10
477.510904828539
 20
405.0150715133296
 10
479.7798447151245
 20
405.0150715133296
 10
479.7798447151245
 20
405.0150715133296
 97
        0
 92
        1
 93
        1
 72
     4
 94
        3
 73
     0
 74
     1
 95
       20
 96
       16
 40
0.0
 40
0.0
 40
0.0
 40
0.0
 40
1.0
 40
1.0
 40
1.0
 40
2.0
 40
2.0
 40
2.0
 40
3.0
 40
3.0
 40
3.0
 40
4.0
 40
4.0
 40
4.0
 40
5.0
 40
5.0
 40
5.0
 40
5.0
 10
478.1541041556351
 20
404.4390515481958
 10
478.1541041556351
 20
404.4390515481958
 10
478.1541041556351
 20
402.3478785886492
 10
478.1541041556351
 20
402.3478785886492
 10
478.1541041556351
 20
402.3478785886492
 10
479.7292018114914
 20
402.3478785886492
 10
479.7292018114914
 20
402.3478785886492
 10
480.3982393547269
 20
402.3478785886492
 10
480.9146591679658
 20
402.6779187361361
 10
480.9146591679658
 20
403.3975991830048
 10
480.9146591679658
 20
404.1172796298735
 10
480.3982393547269
 20
404.4390515481958
 10
479.7292018114914
 20
404.4390515481958
 10
479.7292018114914
 20
404.4390515481958
 10
478.1541041556351
 20
404.4390515481958
 10
478.1541041556351
 20
404.4390515481958
 97
        0
 92
        1
 93
        1
 72
     4
 94
        3
 73
     0
 74
     1
 95
       20
 96
       16
 40
0.0
 40
0.0
 40
0.0
 40
0.0
 40
1.0
 40
1.0
 40
1.0
 40
2.0
 40
2.0
 40
2.0
 40
3.0
 40
3.0
 40
3.0
 40
4.0
 40
4.0
 40
4.0
 40
5.0
 40
5.0
 40
5.0
 40
5.0
 10
478.1541041556351
 20
401.7718586235154
 10
478.1541041556351
 20
401.7718586235154
 10
478.1541041556351
 20
399.5618298697276
 10
478.1541041556351
 20
399.5618298697276
 10
478.1541041556351
 20
399.5618298697276
 10
479.7970701925507
 20
399.5618298697276
 10
479.7970701925507
 20
399.5618298697276
 10
480.5422443460103
 20
399.5618298697276
 10
481.0076767460675
 20
399.993844843578
 10
481.0076767460675
 20
400.671150615978
 10
481.0076767460675
 20
401.3484563883782
 10
480.5422443460103
 20
401.7718586235154
 10
479.7970701925507
 20
401.7718586235154
 10
479.7970701925507
 20
401.7718586235154
 10
478.1541041556351
 20
401.7718586235154
 10
478.1541041556351
 20
401.7718586235154
 97
        0
 75
     2
 76
     1
 98
        0
  0
SPLINE
  5
303
330
2B9
100
AcDbEntity
  8
Layer 1
370
     0
100
AcDbSpline
210
0.0
220
0.0
230
1.0
 70
    11
 71
     3
 72
    29
 73
    25
 74
     0
 42
0.0000000001
 43
0.0000000001
 12
1.0
 22
0.0
 32
0.0
 13
1.0
 23
0.0
 33
0.0
 40
0.0
 40
0.0
 40
0.0
 40
0.0
 40
1.0
 40
1.0
 40
1.0
 40
2.0
 40
2.0
 40
2.0
 40
3.0
 40
3.0
 40
3.0
 40
4.0
 40
4.0
 40
4.0
 40
5.0
 40
5.0
 40
5.0
 40
6.0
 40
6.0
 40
6.0
 40
7.0
 40
7.0
 40
7.0
 40
8.0
 40
8.0
 40
8.0
 40
8.0
 10
482.7260903741102
 20
400.6456569093872
 30
0.0
 10
482.7260903741102
 20
401.3484563883782
 30
0.0
 10
483.1243434122051
 20
401.8228460366971
 30
0.0
 10
483.6321504867309
 20
402.1105115097154
 30
0.0
 10
483.1581053479605
 20
402.3816405244046
 30
0.0
 10
482.8449461683513
 20
402.8219237274195
 30
0.0
 10
482.8449461683513
 20
403.4485865961865
 30
0.0
 10
482.8449461683513
 20
404.3884086445626
 30
0.0
 10
483.5477456473423
 20
405.0657144169627
 30
0.0
 10
484.5044486635961
 20
405.0657144169627
 30
0.0
 10
485.46115167985
 20
405.0657144169627
 30
0.0
 10
486.163951158841
 20
404.3884086445626
 30
0.0
 10
486.163951158841
 20
403.4485865961865
 30
0.0
 10
486.163951158841
 20
402.8219237274195
 30
0.0
 10
485.8590602083964
 20
402.3816405244046
 30
0.0
 10
485.385015069626
 20
402.1105115097154
 30
0.0
 10
485.8931666537003
 20
401.8228460366971
 30
0.0
 10
486.2824624435336
 20
401.3484563883782
 30
0.0
 10
486.2824624435336
 20
400.6456569093872
 30
0.0
 10
486.2824624435336
 20
399.629698250787
 30
0.0
 10
485.5035263543186
 20
398.9355115105092
 30
0.0
 10
484.5044486635961
 20
398.9355115105092
 30
0.0
 10
483.5053709728737
 20
398.9355115105092
 30
0.0
 10
482.7260903741102
 20
399.629698250787
 30
0.0
 10
482.7260903741102
 20
400.6456569093872
 30
0.0
  0
SPLINE
  5
304
330
2B9
100
AcDbEntity
  8
Layer 1
370
     0
100
AcDbSpline
210
0.0
220
0.0
230
1.0
 70
    11
 71
     3
 72
    17
 73
    13
 74
     0
 42
0.0000000001
 43
0.0000000001
 12
1.0
 22
0.0
 32
0.0
 13
1.0
 23
0.0
 33
0.0
 40
0.0
 40
0.0
 40
0.0
 40
0.0
 40
1.0
 40
1.0
 40
1.0
 40
2.0
 40
2.0
 40
2.0
 40
3.0
 40
3.0
 40
3.0
 40
4.0
 40
4.0
 40
4.0
 40
4.0
 10
485.6730250521929
 20
400.6542696481004
 30
0.0
 10
485.6730250521929
 20
401.3233071913359
 30
0.0
 10
485.1648734681185
 20
401.8311142658617
 30
0.0
 10
484.5044486635961
 20
401.8311142658617
 30
0.0
 10
483.8440238590737
 20
401.8311142658617
 30
0.0
 10
483.3358722749994
 20
401.3233071913359
 30
0.0
 10
483.3358722749994
 20
400.6542696481004
 30
0.0
 10
483.3358722749994
 20
399.9852321048648
 30
0.0
 10
483.8440238590737
 20
399.477425030339
 30
0.0
 10
484.5044486635961
 20
399.477425030339
 30
0.0
 10
485.1648734681185
 20
399.477425030339
 30
0.0
 10
485.6730250521929
 20
399.9852321048648
 30
0.0
 10
485.6730250521929
 20
400.6542696481004
 30
0.0
  0
SPLINE
  5
305
330
2B9
100
AcDbEntity
  8
Layer 1
370
     0
100
AcDbSpline
210
0.0
220
0.0
230
1.0
 70
    11
 71
     3
 72
    17
 73
    13
 74
     0
 42
0.0000000001
 43
0.0000000001
 12
1.0
 22
0.0
 32
0.0
 13
1.0
 23
0.0
 33
0.0
 40
0.0
 40
0.0
 40
0.0
 40
0.0
 40
1.0
 40
1.0
 40
1.0
 40
2.0
 40
2.0
 40
2.0
 40
3.0
 40
3.0
 40
3.0
 40
4.0
 40
4.0
 40
4.0
 40
4.0
 10
485.5545137675003
 20
403.4399738574734
 30
0.0
 10
485.5545137675003
 20
404.0666367262403
 30
0.0
 10
485.1224987936499
 20
404.523800897133
 30
0.0
 10
484.5044486635961
 20
404.523800897133
 30
0.0
 10
483.8863985335423
 20
404.523800897133
 30
0.0
 10
483.454383559692
 20
404.0666367262403
 30
0.0
 10
483.454383559692
 20
403.4399738574734
 30
0.0
 10
483.454383559692
 20
402.8050427595418
 30
0.0
 10
483.8863985335423
 20
402.3647595565269
 30
0.0
 10
484.5044486635961
 20
402.3647595565269
 30
0.0
 10
485.1224987936499
 20
402.3647595565269
 30
0.0
 10
485.5545137675003
 20
402.8050427595418
 30
0.0
 10
485.5545137675003
 20
403.4399738574734
 30
0.0
  0
HATCH
  5
306
330
2B9
100
AcDbEntity
  8
Layer 1
 62
     7
100
AcDbHatch
 10
0.0
 20
0.0
 30
0.0
210
0.0
220
0.0
230
1.0
  2
SOLID
 70
     1
 71
     0
 91
        3
 92
        1
 93
        1
 72
     4
 94
        3
 73
     0
 74
     1
 95
       29
 96
       25
 40
0.0
 40
0.0
 40
0.0
 40
0.0
 40
1.0
 40
1.0
 40
1.0
 40
2.0
 40
2.0
 40
2.0
 40
3.0
 40
3.0
 40
3.0
 40
4.0
 40
4.0
 40
4.0
 40
5.0
 40
5.0
 40
5.0
 40
6.0
 40
6.0
 40
6.0
 40
7.0
 40
7.0
 40
7.0
 40
8.0
 40
8.0
 40
8.0
 40
8.0
 10
482.7260903741102
 20
400.6456569093872
 10
482.7260903741102
 20
401.3484563883782
 10
483.1243434122051
 20
401.8228460366971
 10
483.6321504867309
 20
402.1105115097154
 10
483.1581053479605
 20
402.3816405244046
 10
482.8449461683513
 20
402.8219237274195
 10
482.8449461683513
 20
403.4485865961865
 10
482.8449461683513
 20
404.3884086445626
 10
483.5477456473423
 20
405.0657144169627
 10
484.5044486635961
 20
405.0657144169627
 10
485.46115167985
 20
405.0657144169627
 10
486.163951158841
 20
404.3884086445626
 10
486.163951158841
 20
403.4485865961865
 10
486.163951158841
 20
402.8219237274195
 10
485.8590602083964
 20
402.3816405244046
 10
485.385015069626
 20
402.1105115097154
 10
485.8931666537003
 20
401.8228460366971
 10
486.2824624435336
 20
401.3484563883782
 10
486.2824624435336
 20
400.6456569093872
 10
486.2824624435336
 20
399.629698250787
 10
485.5035263543186
 20
398.9355115105092
 10
484.5044486635961
 20
398.9355115105092
 10
483.5053709728737
 20
398.9355115105092
 10
482.7260903741102
 20
399.629698250787
 10
482.7260903741102
 20
400.6456569093872
 97
        0
 92
        1
 93
        1
 72
     4
 94
        3
 73
     0
 74
     1
 95
       17
 96
       13
 40
0.0
 40
0.0
 40
0.0
 40
0.0
 40
1.0
 40
1.0
 40
1.0
 40
2.0
 40
2.0
 40
2.0
 40
3.0
 40
3.0
 40
3.0
 40
4.0
 40
4.0
 40
4.0
 40
4.0
 10
485.6730250521929
 20
400.6542696481004
 10
485.6730250521929
 20
401.3233071913359
 10
485.1648734681185
 20
401.8311142658617
 10
484.5044486635961
 20
401.8311142658617
 10
483.8440238590737
 20
401.8311142658617
 10
483.3358722749994
 20
401.3233071913359
 10
483.3358722749994
 20
400.6542696481004
 10
483.3358722749994
 20
399.9852321048648
 10
483.8440238590737
 20
399.477425030339
 10
484.5044486635961
 20
399.477425030339
 10
485.1648734681185
 20
399.477425030339
 10
485.6730250521929
 20
399.9852321048648
 10
485.6730250521929
 20
400.6542696481004
 97
        0
 92
        1
 93
        1
 72
     4
 94
        3
 73
     0
 74
     1
 95
       17
 96
       13
 40
0.0
 40
0.0
 40
0.0
 40
0.0
 40
1.0
 40
1.0
 40
1.0
 40
2.0
 40
2.0
 40
2.0
 40
3.0
 40
3.0
 40
3.0
 40
4.0
 40
4.0
 40
4.0
 40
4.0
 10
485.5545137675003
 20
403.4399738574734
 10
485.5545137675003
 20
404.0666367262403
 10
485.1224987936499
 20
404.523800897133
 10
484.5044486635961
 20
404.523800897133
 10
483.8863985335423
 20
404.523800897133
 10
483.454383559692
 20
404.0666367262403
 10
483.454383559692
 20
403.4399738574734
 10
483.454383559692
 20
402.8050427595418
 10
483.8863985335423
 20
402.3647595565269
 10
484.5044486635961
 20
402.3647595565269
 10
485.1224987936499
 20
402.3647595565269
 10
485.5545137675003
 20
402.8050427595418
 10
485.5545137675003
 20
403.4399738574734
 97
        0
 75
     2
 76
     1
 98
        0
  0
SPLINE
  5
307
330
2B9
100
AcDbEntity
  8
Layer 1
370
     0
100
AcDbSpline
210
0.0
220
0.0
230
1.0
 70
    11
 71
     3
 72
    29
 73
    25
 74
     0
 42
0.0000000001
 43
0.0000000001
 12
1.0
 22
0.0
 32
0.0
 13
1.0
 23
0.0
 33
0.0
 40
0.0
 40
0.0
 40
0.0
 40
0.0
 40
1.0
 40
1.0
 40
1.0
 40
2.0
 40
2.0
 40
2.0
 40
3.0
 40
3.0
 40
3.0
 40
4.0
 40
4.0
 40
4.0
 40
5.0
 40
5.0
 40
5.0
 40
6.0
 40
6.0
 40
6.0
 40
7.0
 40
7.0
 40
7.0
 40
8.0
 40
8.0
 40
8.0
 40
8.0
 10
487.1454588625887
 20
400.6456569093872
 30
0.0
 10
487.1454588625887
 20
401.3484563883782
 30
0.0
 10
487.5437119006835
 20
401.8228460366971
 30
0.0
 10
488.0515189752094
 20
402.1105115097154
 30
0.0
 10
487.577473836439
 20
402.3816405244046
 30
0.0
 10
487.2643146568298
 20
402.8219237274195
 30
0.0
 10
487.2643146568298
 20
403.4485865961865
 30
0.0
 10
487.2643146568298
 20
404.3884086445626
 30
0.0
 10
487.9671141358207
 20
405.0657144169627
 30
0.0
 10
488.9238171520746
 20
405.0657144169627
 30
0.0
 10
489.8805201683285
 20
405.0657144169627
 30
0.0
 10
490.5833196473195
 20
404.3884086445626
 30
0.0
 10
490.5833196473195
 20
403.4485865961865
 30
0.0
 10
490.5833196473195
 20
402.8219237274195
 30
0.0
 10
490.2784286968749
 20
402.3816405244046
 30
0.0
 10
489.8043835581045
 20
402.1105115097154
 30
0.0
 10
490.3125351421788
 20
401.8228460366971
 30
0.0
 10
490.7018309320121
 20
401.3484563883782
 30
0.0
 10
490.7018309320121
 20
400.6456569093872
 30
0.0
 10
490.7018309320121
 20
399.629698250787
 30
0.0
 10
489.9228948427971
 20
398.9355115105092
 30
0.0
 10
488.9238171520746
 20
398.9355115105092
 30
0.0
 10
487.9247394613521
 20
398.9355115105092
 30
0.0
 10
487.1454588625887
 20
399.629698250787
 30
0.0
 10
487.1454588625887
 20
400.6456569093872
 30
0.0
  0
SPLINE
  5
308
330
2B9
100
AcDbEntity
  8
Layer 1
370
     0
100
AcDbSpline
210
0.0
220
0.0
230
1.0
 70
    11
 71
     3
 72
    17
 73
    13
 74
     0
 42
0.0000000001
 43
0.0000000001
 12
1.0
 22
0.0
 32
0.0
 13
1.0
 23
0.0
 33
0.0
 40
0.0
 40
0.0
 40
0.0
 40
0.0
 40
1.0
 40
1.0
 40
1.0
 40
2.0
 40
2.0
 40
2.0
 40
3.0
 40
3.0
 40
3.0
 40
4.0
 40
4.0
 40
4.0
 40
4.0
 10
490.0923935406714
 20
400.6542696481004
 30
0.0
 10
490.0923935406714
 20
401.3233071913359
 30
0.0
 10
489.584241956597
 20
401.8311142658617
 30
0.0
 10
488.9238171520746
 20
401.8311142658617
 30
0.0
 10
488.2633923475522
 20
401.8311142658617
 30
0.0
 10
487.7552407634779
 20
401.3233071913359
 30
0.0
 10
487.7552407634779
 20
400.6542696481004
 30
0.0
 10
487.7552407634779
 20
399.9852321048648
 30
0.0
 10
488.2633923475522
 20
399.477425030339
 30
0.0
 10
488.9238171520746
 20
399.477425030339
 30
0.0
 10
489.584241956597
 20
399.477425030339
 30
0.0
 10
490.0923935406714
 20
399.9852321048648
 30
0.0
 10
490.0923935406714
 20
400.6542696481004
 30
0.0
  0
SPLINE
  5
309
330
2B9
100
AcDbEntity
  8
Layer 1
370
     0
100
AcDbSpline
210
0.0
220
0.0
230
1.0
 70
    11
 71
     3
 72
    17
 73
    13
 74
     0
 42
0.0000000001
 43
0.0000000001
 12
1.0
 22
0.0
 32
0.0
 13
1.0
 23
0.0
 33
0.0
 40
0.0
 40
0.0
 40
0.0
 40
0.0
 40
1.0
 40
1.0
 40
1.0
 40
2.0
 40
2.0
 40
2.0
 40
3.0
 40
3.0
 40
3.0
 40
4.0
 40
4.0
 40
4.0
 40
4.0
 10
489.9738822559788
 20
403.4399738574734
 30
0.0
 10
489.9738822559788
 20
404.0666367262403
 30
0.0
 10
489.5418672821285
 20
404.523800897133
 30
0.0
 10
488.9238171520746
 20
404.523800897133
 30
0.0
 10
488.3057670220208
 20
404.523800897133
 30
0.0
 10
487.8737520481704
 20
404.0666367262403
 30
0.0
 10
487.8737520481704
 20
403.4399738574734
 30
0.0
 10
487.8737520481704
 20
402.8050427595418
 30
0.0
 10
488.3057670220208
 20
402.3647595565269
 30
0.0
 10
488.9238171520746
 20
402.3647595565269
 30
0.0
 10
489.5418672821285
 20
402.3647595565269
 30
0.0
 10
489.9738822559788
 20
402.8050427595418
 30
0.0
 10
489.9738822559788
 20
403.4399738574734
 30
0.0
  0
HATCH
  5
30A
330
2B9
100
AcDbEntity
  8
Layer 1
 62
     7
100
AcDbHatch
 10
0.0
 20
0.0
 30
0.0
210
0.0
220
0.0
230
1.0
  2
SOLID
 70
     1
 71
     0
 91
        3
 92
        1
 93
        1
 72
     4
 94
        3
 73
     0
 74
     1
 95
       29
 96
       25
 40
0.0
 40
0.0
 40
0.0
 40
0.0
 40
1.0
 40
1.0
 40
1.0
 40
2.0
 40
2.0
 40
2.0
 40
3.0
 40
3.0
 40
3.0
 40
4.0
 40
4.0
 40
4.0
 40
5.0
 40
5.0
 40
5.0
 40
6.0
 40
6.0
 40
6.0
 40
7.0
 40
7.0
 40
7.0
 40
8.0
 40
8.0
 40
8.0
 40
8.0
 10
487.1454588625887
 20
400.6456569093872
 10
487.1454588625887
 20
401.3484563883782
 10
487.5437119006835
 20
401.8228460366971
 10
488.0515189752094
 20
402.1105115097154
 10
487.577473836439
 20
402.3816405244046
 10
487.2643146568298
 20
402.8219237274195
 10
487.2643146568298
 20
403.4485865961865
 10
487.2643146568298
 20
404.3884086445626
 10
487.9671141358207
 20
405.0657144169627
 10
488.9238171520746
 20
405.0657144169627
 10
489.8805201683285
 20
405.0657144169627
 10
490.5833196473195
 20
404.3884086445626
 10
490.5833196473195
 20
403.4485865961865
 10
490.5833196473195
 20
402.8219237274195
 10
490.2784286968749
 20
402.3816405244046
 10
489.8043835581045
 20
402.1105115097154
 10
490.3125351421788
 20
401.8228460366971
 10
490.7018309320121
 20
401.3484563883782
 10
490.7018309320121
 20
400.6456569093872
 10
490.7018309320121
 20
399.629698250787
 10
489.9228948427971
 20
398.9355115105092
 10
488.9238171520746
 20
398.9355115105092
 10
487.9247394613521
 20
398.9355115105092
 10
487.1454588625887
 20
399.629698250787
 10
487.1454588625887
 20
400.6456569093872
 97
        0
 92
        1
 93
        1
 72
     4
 94
        3
 73
     0
 74
     1
 95
       17
 96
       13
 40
0.0
 40
0.0
 40
0.0
 40
0.0
 40
1.0
 40
1.0
 40
1.0
 40
2.0
 40
2.0
 40
2.0
 40
3.0
 40
3.0
 40
3.0
 40
4.0
 40
4.0
 40
4.0
 40
4.0
 10
490.0923935406714
 20
400.6542696481004
 10
490.0923935406714
 20
401.3233071913359
 10
489.584241956597
 20
401.8311142658617
 10
488.9238171520746
 20
401.8311142658617
 10
488.2633923475522
 20
401.8311142658617
 10
487.7552407634779
 20
401.3233071913359
 10
487.7552407634779
 20
400.6542696481004
 10
487.7552407634779
 20
399.9852321048648
 10
488.2633923475522
 20
399.477425030339
 10
488.9238171520746
 20
399.477425030339
 10
489.584241956597
 20
399.477425030339
 10
490.0923935406714
 20
399.9852321048648
 10
490.0923935406714
 20
400.6542696481004
 97
        0
 92
        1
 93
        1
 72
     4
 94
        3
 73
     0
 74
     1
 95
       17
 96
       13
 40
0.0
 40
0.0
 40
0.0
 40
0.0
 40
1.0
 40
1.0
 40
1.0
 40
2.0
 40
2.0
 40
2.0
 40
3.0
 40
3.0
 40
3.0
 40
4.0
 40
4.0
 40
4.0
 40
4.0
 10
489.9738822559788
 20
403.4399738574734
 10
489.9738822559788
 20
404.0666367262403
 10
489.5418672821285
 20
404.523800897133
 10
488.9238171520746
 20
404.523800897133
 10
488.3057670220208
 20
404.523800897133
 10
487.8737520481704
 20
404.0666367262403
 10
487.8737520481704
 20
403.4399738574734
 10
487.8737520481704
 20
402.8050427595418
 10
488.3057670220208
 20
402.3647595565269
 10
488.9238171520746
 20
402.3647595565269
 10
489.5418672821285
 20
402.3647595565269
 10
489.9738822559788
 20
402.8050427595418
 10
489.9738822559788
 20
403.4399738574734
 97
        0
 75
     2
 76
     1
 98
        0
  0
SPLINE
  5
30B
330
2B9
100
AcDbEntity
  8
Layer 1
370
     0
100
AcDbSpline
210
0.0
220
0.0
230
1.0
 70
    11
 71
     3
 72
    65
 73
    61
 74
     0
 42
0.0000000001
 43
0.0000000001
 12
1.0
 22
0.0
 32
0.0
 13
1.0
 23
0.0
 33
0.0
 40
0.0
 40
0.0
 40
0.0
 40
0.0
 40
1.0
 40
1.0
 40
1.0
 40
2.0
 40
2.0
 40
2.0
 40
3.0
 40
3.0
 40
3.0
 40
4.0
 40
4.0
 40
4.0
 40
5.0
 40
5.0
 40
5.0
 40
6.0
 40
6.0
 40
6.0
 40
7.0
 40
7.0
 40
7.0
 40
8.0
 40
8.0
 40
8.0
 40
9.0
 40
9.0
 40
9.0
 40
10.0
 40
10.0
 40
10.0
 40
11.0
 40
11.0
 40
11.0
 40
12.0
 40
12.0
 40
12.0
 40
13.0
 40
13.0
 40
13.0
 40
14.0
 40
14.0
 40
14.0
 40
15.0
 40
15.0
 40
15.0
 40
16.0
 40
16.0
 40
16.0
 40
17.0
 40
17.0
 40
17.0
 40
18.0
 40
18.0
 40
18.0
 40
19.0
 40
19.0
 40
19.0
 40
20.0
 40
20.0
 40
20.0
 40
20.0
 10
497.4838459042749
 20
404.4052896124404
 30
0.0
 10
497.4838459042749
 20
404.4052896124404
 30
0.0
 10
497.0687118983023
 20
403.9905001160163
 30
0.0
 10
497.0687118983023
 20
403.9905001160163
 30
0.0
 10
496.7045653055114
 20
404.3374212313809
 30
0.0
 10
496.2897758090873
 20
404.5155326679683
 30
0.0
 10
495.6631129403203
 20
404.5155326679683
 30
0.0
 10
494.8504149153499
 20
404.5155326679683
 30
0.0
 10
494.3846380057441
 20
404.0666367262403
 30
0.0
 10
494.3846380057441
 20
403.3893309538402
 30
0.0
 10
494.3846380057441
 20
403.0927082325602
 30
0.0
 10
494.4693873546813
 20
402.8474174340104
 30
0.0
 10
494.6557670204333
 20
402.6865314748492
 30
0.0
 10
494.8418021766368
 20
402.525645515688
 30
0.0
 10
495.1298121592037
 20
402.4240151988732
 30
0.0
 10
495.4429713388129
 20
402.3730277856915
 30
0.0
 10
495.4429713388129
 20
402.3730277856915
 30
0.0
 10
496.1457708178039
 20
402.263129239712
 30
0.0
 10
496.1457708178039
 20
402.263129239712
 30
0.0
 10
496.7045653055114
 20
402.1783798907749
 30
0.0
 10
496.9670815814874
 20
402.07674957396
 30
0.0
 10
497.2382105961766
 20
401.8311142658617
 30
0.0
 10
497.5599825144989
 20
401.5517170220079
 30
0.0
 10
497.7463621802509
 20
401.1451957547484
 30
0.0
 10
497.7463621802509
 20
400.6456569093872
 30
0.0
 10
497.7463621802509
 20
399.5873235763185
 30
0.0
 10
496.9247069070188
 20
398.9355115105092
 30
0.0
 10
495.6631129403203
 20
398.9355115105092
 30
0.0
 10
494.7656655664128
 20
398.9355115105092
 30
0.0
 10
494.1644964042367
 20
399.1639213411813
 30
0.0
 10
493.6057019165291
 20
399.7313285676019
 30
0.0
 10
493.6057019165291
 20
399.7313285676019
 30
0.0
 10
494.037372380831
 20
400.1629990319037
 30
0.0
 10
494.037372380831
 20
400.1629990319037
 30
0.0
 10
494.5369112261922
 20
399.6634601865425
 30
0.0
 10
495.0026881357979
 20
399.5111869660944
 30
0.0
 10
495.6803384177466
 20
399.5111869660944
 30
0.0
 10
496.569173052941
 20
399.5111869660944
 30
0.0
 10
497.1110865727709
 20
399.9177082333539
 30
0.0
 10
497.1110865727709
 20
400.6287759415095
 30
0.0
 10
497.1110865727709
 20
400.9505478598318
 30
0.0
 10
497.0180689946691
 20
401.2044513970947
 30
0.0
 10
496.8148083610394
 20
401.3825628336821
 30
0.0
 10
496.6284286952874
 20
401.5517170220079
 30
0.0
 10
496.4592745069616
 20
401.6109726643542
 30
0.0
 10
496.0272595331112
 20
401.6788410454137
 30
0.0
 10
496.0272595331112
 20
401.6788410454137
 30
0.0
 10
495.3244600541203
 20
401.7804713622285
 30
0.0
 10
495.3244600541203
 20
401.7804713622285
 30
0.0
 10
494.8504149153499
 20
401.8566079724525
 30
0.0
 10
494.4948810612721
 20
402.000612963736
 30
0.0
 10
494.223752046583
 20
402.2376355331212
 30
0.0
 10
493.9188610961384
 20
402.5087645478103
 30
0.0
 10
493.7579751369772
 20
402.8811793697658
 30
0.0
 10
493.7579751369772
 20
403.3721054764139
 30
0.0
 10
493.7579751369772
 20
404.3966768737272
 30
0.0
 10
494.4948810612721
 20
405.0657144169627
 30
0.0
 10
495.6886066469112
 20
405.0657144169627
 30
0.0
 10
496.4592745069616
 20
405.0657144169627
 30
0.0
 10
496.9670815814874
 20
404.862453783333
 30
0.0
 10
497.4838459042749
 20
404.4052896124404
 30
0.0
  0
HATCH
  5
30C
330
2B9
100
AcDbEntity
  8
Layer 1
 62
     7
100
AcDbHatch
 10
0.0
 20
0.0
 30
0.0
210
0.0
220
0.0
230
1.0
  2
SOLID
 70
     1
 71
     0
 91
        1
 92
        1
 93
        1
 72
     4
 94
        3
 73
     0
 74
     1
 95
       65
 96
       61
 40
0.0
 40
0.0
 40
0.0
 40
0.0
 40
1.0
 40
1.0
 40
1.0
 40
2.0
 40
2.0
 40
2.0
 40
3.0
 40
3.0
 40
3.0
 40
4.0
 40
4.0
 40
4.0
 40
5.0
 40
5.0
 40
5.0
 40
6.0
 40
6.0
 40
6.0
 40
7.0
 40
7.0
 40
7.0
 40
8.0
 40
8.0
 40
8.0
 40
9.0
 40
9.0
 40
9.0
 40
10.0
 40
10.0
 40
10.0
 40
11.0
 40
11.0
 40
11.0
 40
12.0
 40
12.0
 40
12.0
 40
13.0
 40
13.0
 40
13.0
 40
14.0
 40
14.0
 40
14.0
 40
15.0
 40
15.0
 40
15.0
 40
16.0
 40
16.0
 40
16.0
 40
17.0
 40
17.0
 40
17.0
 40
18.0
 40
18.0
 40
18.0
 40
19.0
 40
19.0
 40
19.0
 40
20.0
 40
20.0
 40
20.0
 40
20.0
 10
497.4838459042749
 20
404.4052896124404
 10
497.4838459042749
 20
404.4052896124404
 10
497.0687118983023
 20
403.9905001160163
 10
497.0687118983023
 20
403.9905001160163
 10
496.7045653055114
 20
404.3374212313809
 10
496.2897758090873
 20
404.5155326679683
 10
495.6631129403203
 20
404.5155326679683
 10
494.8504149153499
 20
404.5155326679683
 10
494.3846380057441
 20
404.0666367262403
 10
494.3846380057441
 20
403.3893309538402
 10
494.3846380057441
 20
403.0927082325602
 10
494.4693873546813
 20
402.8474174340104
 10
494.6557670204333
 20
402.6865314748492
 10
494.8418021766368
 20
402.525645515688
 10
495.1298121592037
 20
402.4240151988732
 10
495.4429713388129
 20
402.3730277856915
 10
495.4429713388129
 20
402.3730277856915
 10
496.1457708178039
 20
402.263129239712
 10
496.1457708178039
 20
402.263129239712
 10
496.7045653055114
 20
402.1783798907749
 10
496.9670815814874
 20
402.07674957396
 10
497.2382105961766
 20
401.8311142658617
 10
497.5599825144989
 20
401.5517170220079
 10
497.7463621802509
 20
401.1451957547484
 10
497.7463621802509
 20
400.6456569093872
 10
497.7463621802509
 20
399.5873235763185
 10
496.9247069070188
 20
398.9355115105092
 10
495.6631129403203
 20
398.9355115105092
 10
494.7656655664128
 20
398.9355115105092
 10
494.1644964042367
 20
399.1639213411813
 10
493.6057019165291
 20
399.7313285676019
 10
493.6057019165291
 20
399.7313285676019
 10
494.037372380831
 20
400.1629990319037
 10
494.037372380831
 20
400.1629990319037
 10
494.5369112261922
 20
399.6634601865425
 10
495.0026881357979
 20
399.5111869660944
 10
495.6803384177466
 20
399.5111869660944
 10
496.569173052941
 20
399.5111869660944
 10
497.1110865727709
 20
399.9177082333539
 10
497.1110865727709
 20
400.6287759415095
 10
497.1110865727709
 20
400.9505478598318
 10
497.0180689946691
 20
401.2044513970947
 10
496.8148083610394
 20
401.3825628336821
 10
496.6284286952874
 20
401.5517170220079
 10
496.4592745069616
 20
401.6109726643542
 10
496.0272595331112
 20
401.6788410454137
 10
496.0272595331112
 20
401.6788410454137
 10
495.3244600541203
 20
401.7804713622285
 10
495.3244600541203
 20
401.7804713622285
 10
494.8504149153499
 20
401.8566079724525
 10
494.4948810612721
 20
402.000612963736
 10
494.223752046583
 20
402.2376355331212
 10
493.9188610961384
 20
402.5087645478103
 10
493.7579751369772
 20
402.8811793697658
 10
493.7579751369772
 20
403.3721054764139
 10
493.7579751369772
 20
404.3966768737272
 10
494.4948810612721
 20
405.0657144169627
 10
495.6886066469112
 20
405.0657144169627
 10
496.4592745069616
 20
405.0657144169627
 10
496.9670815814874
 20
404.862453783333
 10
497.4838459042749
 20
404.4052896124404
 97
        0
 75
     2
 76
     1
 98
        0
  0
SPLINE
  5
30D
330
2B9
100
AcDbEntity
  8
Layer 1
370
     0
100
AcDbSpline
210
0.0
220
0.0
230
1.0
 70
    11
 71
     3
 72
    53
 73
    49
 74
     0
 42
0.0000000001
 43
0.0000000001
 12
1.0
 22
0.0
 32
0.0
 13
1.0
 23
0.0
 33
0.0
 40
0.0
 40
0.0
 40
0.0
 40
0.0
 40
1.0
 40
1.0
 40
1.0
 40
2.0
 40
2.0
 40
2.0
 40
3.0
 40
3.0
 40
3.0
 40
4.0
 40
4.0
 40
4.0
 40
5.0
 40
5.0
 40
5.0
 40
6.0
 40
6.0
 40
6.0
 40
7.0
 40
7.0
 40
7.0
 40
8.0
 40
8.0
 40
8.0
 40
9.0
 40
9.0
 40
9.0
 40
10.0
 40
10.0
 40
10.0
 40
11.0
 40
11.0
 40
11.0
 40
12.0
 40
12.0
 40
12.0
 40
13.0
 40
13.0
 40
13.0
 40
14.0
 40
14.0
 40
14.0
 40
15.0
 40
15.0
 40
15.0
 40
16.0
 40
16.0
 40
16.0
 40
16.0
 10
499.6935301485141
 20
403.1519638749065
 30
0.0
 10
499.6935301485141
 20
403.1519638749065
 30
0.0
 10
500.5823647837086
 20
403.1519638749065
 30
0.0
 10
500.5823647837086
 20
403.1519638749065
 30
0.0
 10
500.5823647837086
 20
403.1519638749065
 30
0.0
 10
500.5823647837086
 20
402.6865314748492
 30
0.0
 10
500.5823647837086
 20
402.6865314748492
 30
0.0
 10
500.5823647837086
 20
402.6865314748492
 30
0.0
 10
499.6935301485141
 20
402.6865314748492
 30
0.0
 10
499.6935301485141
 20
402.6865314748492
 30
0.0
 10
499.6935301485141
 20
402.6865314748492
 30
0.0
 10
499.6935301485141
 20
400.1206243574351
 30
0.0
 10
499.6935301485141
 20
400.1206243574351
 30
0.0
 10
499.6935301485141
 20
399.7313285676019
 30
0.0
 10
499.8712970755531
 20
399.5111869660944
 30
0.0
 10
500.2605928653863
 20
399.5111869660944
 30
0.0
 10
500.2605928653863
 20
399.5111869660944
 30
0.0
 10
500.5823647837086
 20
399.5111869660944
 30
0.0
 10
500.5823647837086
 20
399.5111869660944
 30
0.0
 10
500.5823647837086
 20
399.5111869660944
 30
0.0
 10
500.5823647837086
 20
398.9861544141424
 30
0.0
 10
500.5823647837086
 20
398.9861544141424
 30
0.0
 10
500.5823647837086
 20
398.9861544141424
 30
0.0
 10
500.1506943194068
 20
398.9861544141424
 30
0.0
 10
500.1506943194068
 20
398.9861544141424
 30
0.0
 10
499.4392821017027
 20
398.9861544141424
 30
0.0
 10
499.0837482476249
 20
399.4856932595036
 30
0.0
 10
499.0837482476249
 20
400.1037433895574
 30
0.0
 10
499.0837482476249
 20
400.1037433895574
 30
0.0
 10
499.0837482476249
 20
402.6865314748492
 30
0.0
 10
499.0837482476249
 20
402.6865314748492
 30
0.0
 10
499.0837482476249
 20
402.6865314748492
 30
0.0
 10
498.5587156956728
 20
402.6865314748492
 30
0.0
 10
498.5587156956728
 20
402.6865314748492
 30
0.0
 10
498.5587156956728
 20
402.6865314748492
 30
0.0
 10
498.5587156956728
 20
403.1519638749065
 30
0.0
 10
498.5587156956728
 20
403.1519638749065
 30
0.0
 10
498.5587156956728
 20
403.1519638749065
 30
0.0
 10
499.0837482476249
 20
403.1519638749065
 30
0.0
 10
499.0837482476249
 20
403.1519638749065
 30
0.0
 10
499.0837482476249
 20
403.1519638749065
 30
0.0
 10
499.0837482476249
 20
404.4307833190312
 30
0.0
 10
499.0837482476249
 20
404.4307833190312
 30
0.0
 10
499.0837482476249
 20
404.4307833190312
 30
0.0
 10
499.6935301485141
 20
404.4307833190312
 30
0.0
 10
499.6935301485141
 20
404.4307833190312
 30
0.0
 10
499.6935301485141
 20
404.4307833190312
 30
0.0
 10
499.6935301485141
 20
403.1519638749065
 30
0.0
 10
499.6935301485141
 20
403.1519638749065
 30
0.0
  0
HATCH
  5
30E
330
2B9
100
AcDbEntity
  8
Layer 1
 62
     7
100
AcDbHatch
 10
0.0
 20
0.0
 30
0.0
210
0.0
220
0.0
230
1.0
  2
SOLID
 70
     1
 71
     0
 91
        1
 92
        1
 93
        1
 72
     4
 94
        3
 73
     0
 74
     1
 95
       53
 96
       49
 40
0.0
 40
0.0
 40
0.0
 40
0.0
 40
1.0
 40
1.0
 40
1.0
 40
2.0
 40
2.0
 40
2.0
 40
3.0
 40
3.0
 40
3.0
 40
4.0
 40
4.0
 40
4.0
 40
5.0
 40
5.0
 40
5.0
 40
6.0
 40
6.0
 40
6.0
 40
7.0
 40
7.0
 40
7.0
 40
8.0
 40
8.0
 40
8.0
 40
9.0
 40
9.0
 40
9.0
 40
10.0
 40
10.0
 40
10.0
 40
11.0
 40
11.0
 40
11.0
 40
12.0
 40
12.0
 40
12.0
 40
13.0
 40
13.0
 40
13.0
 40
14.0
 40
14.0
 40
14.0
 40
15.0
 40
15.0
 40
15.0
 40
16.0
 40
16.0
 40
16.0
 40
16.0
 10
499.6935301485141
 20
403.1519638749065
 10
499.6935301485141
 20
403.1519638749065
 10
500.5823647837086
 20
403.1519638749065
 10
500.5823647837086
 20
403.1519638749065
 10
500.5823647837086
 20
403.1519638749065
 10
500.5823647837086
 20
402.6865314748492
 10
500.5823647837086
 20
402.6865314748492
 10
500.5823647837086
 20
402.6865314748492
 10
499.6935301485141
 20
402.6865314748492
 10
499.6935301485141
 20
402.6865314748492
 10
499.6935301485141
 20
402.6865314748492
 10
499.6935301485141
 20
400.1206243574351
 10
499.6935301485141
 20
400.1206243574351
 10
499.6935301485141
 20
399.7313285676019
 10
499.8712970755531
 20
399.5111869660944
 10
500.2605928653863
 20
399.5111869660944
 10
500.2605928653863
 20
399.5111869660944
 10
500.5823647837086
 20
399.5111869660944
 10
500.5823647837086
 20
399.5111869660944
 10
500.5823647837086
 20
399.5111869660944
 10
500.5823647837086
 20
398.9861544141424
 10
500.5823647837086
 20
398.9861544141424
 10
500.5823647837086
 20
398.9861544141424
 10
500.1506943194068
 20
398.9861544141424
 10
500.1506943194068
 20
398.9861544141424
 10
499.4392821017027
 20
398.9861544141424
 10
499.0837482476249
 20
399.4856932595036
 10
499.0837482476249
 20
400.1037433895574
 10
499.0837482476249
 20
400.1037433895574
 10
499.0837482476249
 20
402.6865314748492
 10
499.0837482476249
 20
402.6865314748492
 10
499.0837482476249
 20
402.6865314748492
 10
498.5587156956728
 20
402.6865314748492
 10
498.5587156956728
 20
402.6865314748492
 10
498.5587156956728
 20
402.6865314748492
 10
498.5587156956728
 20
403.1519638749065
 10
498.5587156956728
 20
403.1519638749065
 10
498.5587156956728
 20
403.1519638749065
 10
499.0837482476249
 20
403.1519638749065
 10
499.0837482476249
 20
403.1519638749065
 10
499.0837482476249
 20
403.1519638749065
 10
499.0837482476249
 20
404.4307833190312
 10
499.0837482476249
 20
404.4307833190312
 10
499.0837482476249
 20
404.4307833190312
 10
499.6935301485141
 20
404.4307833190312
 10
499.6935301485141
 20
404.4307833190312
 10
499.6935301485141
 20
404.4307833190312
 10
499.6935301485141
 20
403.1519638749065
 10
499.6935301485141
 20
403.1519638749065
 97
        0
 75
     2
 76
     1
 98
        0
  0
SPLINE
  5
30F
330
2B9
100
AcDbEntity
  8
Layer 1
370
     0
100
AcDbSpline
210
0.0
220
0.0
230
1.0
 70
    11
 71
     3
 72
    35
 73
    31
 74
     0
 42
0.0000000001
 43
0.0000000001
 12
1.0
 22
0.0
 32
0.0
 13
1.0
 23
0.0
 33
0.0
 40
0.0
 40
0.0
 40
0.0
 40
0.0
 40
1.0
 40
1.0
 40
1.0
 40
2.0
 40
2.0
 40
2.0
 40
3.0
 40
3.0
 40
3.0
 40
4.0
 40
4.0
 40
4.0
 40
5.0
 40
5.0
 40
5.0
 40
6.0
 40
6.0
 40
6.0
 40
7.0
 40
7.0
 40
7.0
 40
8.0
 40
8.0
 40
8.0
 40
9.0
 40
9.0
 40
9.0
 40
10.0
 40
10.0
 40
10.0
 40
10.0
 10
504.5700628078853
 20
402.8133109887064
 30
0.0
 10
504.5700628078853
 20
402.8133109887064
 30
0.0
 10
504.1211668661572
 20
402.3561468178137
 30
0.0
 10
504.1211668661572
 20
402.3561468178137
 30
0.0
 10
503.8924125259367
 20
402.5849011580344
 30
0.0
 10
503.7232583376109
 20
402.6610377682584
 30
0.0
 10
503.4014864192885
 20
402.6610377682584
 30
0.0
 10
502.7917045183993
 20
402.6610377682584
 30
0.0
 10
502.4024087285661
 20
402.1783798907749
 30
0.0
 10
502.4024087285661
 20
401.5434487928433
 30
0.0
 10
502.4024087285661
 20
401.5434487928433
 30
0.0
 10
502.4024087285661
 20
398.9861544141424
 30
0.0
 10
502.4024087285661
 20
398.9861544141424
 30
0.0
 10
502.4024087285661
 20
398.9861544141424
 30
0.0
 10
501.7926268276769
 20
398.9861544141424
 30
0.0
 10
501.7926268276769
 20
398.9861544141424
 30
0.0
 10
501.7926268276769
 20
398.9861544141424
 30
0.0
 10
501.7926268276769
 20
403.1519638749065
 30
0.0
 10
501.7926268276769
 20
403.1519638749065
 30
0.0
 10
501.7926268276769
 20
403.1519638749065
 30
0.0
 10
502.4024087285661
 20
403.1519638749065
 30
0.0
 10
502.4024087285661
 20
403.1519638749065
 30
0.0
 10
502.4024087285661
 20
403.1519638749065
 30
0.0
 10
502.4024087285661
 20
402.6441568003806
 30
0.0
 10
502.4024087285661
 20
402.6441568003806
 30
0.0
 10
502.6308185592382
 20
402.9910779157453
 30
0.0
 10
503.0879827301308
 20
403.2029512880882
 30
0.0
 10
503.5706406076143
 20
403.2029512880882
 30
0.0
 10
503.9688936457092
 20
403.2029512880882
 30
0.0
 10
504.2734400866053
 20
403.1099337099864
 30
0.0
 10
504.5700628078853
 20
402.8133109887064
 30
0.0
  0
HATCH
  5
310
330
2B9
100
AcDbEntity
  8
Layer 1
 62
     7
100
AcDbHatch
 10
0.0
 20
0.0
 30
0.0
210
0.0
220
0.0
230
1.0
  2
SOLID
 70
     1
 71
     0
 91
        1
 92
        1
 93
        1
 72
     4
 94
        3
 73
     0
 74
     1
 95
       35
 96
       31
 40
0.0
 40
0.0
 40
0.0
 40
0.0
 40
1.0
 40
1.0
 40
1.0
 40
2.0
 40
2.0
 40
2.0
 40
3.0
 40
3.0
 40
3.0
 40
4.0
 40
4.0
 40
4.0
 40
5.0
 40
5.0
 40
5.0
 40
6.0
 40
6.0
 40
6.0
 40
7.0
 40
7.0
 40
7.0
 40
8.0
 40
8.0
 40
8.0
 40
9.0
 40
9.0
 40
9.0
 40
10.0
 40
10.0
 40
10.0
 40
10.0
 10
504.5700628078853
 20
402.8133109887064
 10
504.5700628078853
 20
402.8133109887064
 10
504.1211668661572
 20
402.3561468178137
 10
504.1211668661572
 20
402.3561468178137
 10
503.8924125259367
 20
402.5849011580344
 10
503.7232583376109
 20
402.6610377682584
 10
503.4014864192885
 20
402.6610377682584
 10
502.7917045183993
 20
402.6610377682584
 10
502.4024087285661
 20
402.1783798907749
 10
502.4024087285661
 20
401.5434487928433
 10
502.4024087285661
 20
401.5434487928433
 10
502.4024087285661
 20
398.9861544141424
 10
502.4024087285661
 20
398.9861544141424
 10
502.4024087285661
 20
398.9861544141424
 10
501.7926268276769
 20
398.9861544141424
 10
501.7926268276769
 20
398.9861544141424
 10
501.7926268276769
 20
398.9861544141424
 10
501.7926268276769
 20
403.1519638749065
 10
501.7926268276769
 20
403.1519638749065
 10
501.7926268276769
 20
403.1519638749065
 10
502.4024087285661
 20
403.1519638749065
 10
502.4024087285661
 20
403.1519638749065
 10
502.4024087285661
 20
403.1519638749065
 10
502.4024087285661
 20
402.6441568003806
 10
502.4024087285661
 20
402.6441568003806
 10
502.6308185592382
 20
402.9910779157453
 10
503.0879827301308
 20
403.2029512880882
 10
503.5706406076143
 20
403.2029512880882
 10
503.9688936457092
 20
403.2029512880882
 10
504.2734400866053
 20
403.1099337099864
 10
504.5700628078853
 20
402.8133109887064
 97
        0
 75
     2
 76
     1
 98
        0
  0
SPLINE
  5
311
330
2B9
100
AcDbEntity
  8
Layer 1
370
     0
100
AcDbSpline
210
0.0
220
0.0
230
1.0
 70
    11
 71
     3
 72
    47
 73
    43
 74
     0
 42
0.0000000001
 43
0.0000000001
 12
1.0
 22
0.0
 32
0.0
 13
1.0
 23
0.0
 33
0.0
 40
0.0
 40
0.0
 40
0.0
 40
0.0
 40
1.0
 40
1.0
 40
1.0
 40
2.0
 40
2.0
 40
2.0
 40
3.0
 40
3.0
 40
3.0
 40
4.0
 40
4.0
 40
4.0
 40
5.0
 40
5.0
 40
5.0
 40
6.0
 40
6.0
 40
6.0
 40
7.0
 40
7.0
 40
7.0
 40
8.0
 40
8.0
 40
8.0
 40
9.0
 40
9.0
 40
9.0
 40
10.0
 40
10.0
 40
10.0
 40
11.0
 40
11.0
 40
11.0
 40
12.0
 40
12.0
 40
12.0
 40
13.0
 40
13.0
 40
13.0
 40
14.0
 40
14.0
 40
14.0
 40
14.0
 10
508.2446016524528
 20
401.8142332979839
 30
0.0
 10
508.2446016524528
 20
401.8142332979839
 30
0.0
 10
508.2446016524528
 20
398.9861544141424
 30
0.0
 10
508.2446016524528
 20
398.9861544141424
 30
0.0
 10
508.2446016524528
 20
398.9861544141424
 30
0.0
 10
507.6348197515636
 20
398.9861544141424
 30
0.0
 10
507.6348197515636
 20
398.9861544141424
 30
0.0
 10
507.6348197515636
 20
398.9861544141424
 30
0.0
 10
507.6348197515636
 20
399.3840629426887
 30
0.0
 10
507.6348197515636
 20
399.3840629426887
 30
0.0
 10
507.3047796040766
 20
399.0540227952018
 30
0.0
 10
506.9912759149188
 20
398.9355115105092
 30
0.0
 10
506.4324814272114
 20
398.9355115105092
 30
0.0
 10
505.8568059716261
 20
398.9355115105092
 30
0.0
 10
505.5436467920169
 20
399.0367973177756
 30
0.0
 10
505.25563680945
 20
399.3165390711778
 30
0.0
 10
505.0437634371071
 20
399.5194551952591
 30
0.0
 10
504.9421331202923
 20
399.8329588844168
 30
0.0
 10
504.9421331202923
 20
400.1629990319037
 30
0.0
 10
504.9421331202923
 20
400.8999049561987
 30
0.0
 10
505.4588974430798
 20
401.3653373562559
 30
0.0
 10
506.3901067527428
 20
401.3653373562559
 30
0.0
 10
506.3901067527428
 20
401.3653373562559
 30
0.0
 10
507.6348197515636
 20
401.3653373562559
 30
0.0
 10
507.6348197515636
 20
401.3653373562559
 30
0.0
 10
507.6348197515636
 20
401.3653373562559
 30
0.0
 10
507.6348197515636
 20
401.7635903943508
 30
0.0
 10
507.6348197515636
 20
401.7635903943508
 30
0.0
 10
507.6348197515636
 20
402.3647595565269
 30
0.0
 10
507.3385415398321
 20
402.6779187361361
 30
0.0
 10
506.5678736797817
 20
402.6779187361361
 30
0.0
 10
506.0431856373781
 20
402.6779187361361
 30
0.0
 10
505.772056622689
 20
402.5425264835658
 30
0.0
 10
505.518153085426
 20
402.1952608586526
 30
0.0
 10
505.518153085426
 20
402.1952608586526
 30
0.0
 10
505.1030190794534
 20
402.5762884193212
 30
0.0
 10
505.1030190794534
 20
402.5762884193212
 30
0.0
 10
505.4671656722443
 20
403.0589462968047
 30
0.0
 10
505.8905679073815
 20
403.2029512880882
 30
0.0
 10
506.5764864184948
 20
403.2029512880882
 30
0.0
 10
507.7026881326229
 20
403.2029512880882
 30
0.0
 10
508.2446016524528
 20
402.7116806718915
 30
0.0
 10
508.2446016524528
 20
401.8142332979839
 30
0.0
  0
SPLINE
  5
312
330
2B9
100
AcDbEntity
  8
Layer 1
370
     0
100
AcDbSpline
210
0.0
220
0.0
230
1.0
 70
    11
 71
     3
 72
    23
 73
    19
 74
     0
 42
0.0000000001
 43
0.0000000001
 12
1.0
 22
0.0
 32
0.0
 13
1.0
 23
0.0
 33
0.0
 40
0.0
 40
0.0
 40
0.0
 40
0.0
 40
1.0
 40
1.0
 40
1.0
 40
2.0
 40
2.0
 40
2.0
 40
3.0
 40
3.0
 40
3.0
 40
4.0
 40
4.0
 40
4.0
 40
5.0
 40
5.0
 40
5.0
 40
6.0
 40
6.0
 40
6.0
 40
6.0
 10
506.4748561016799
 20
400.9081731853632
 30
0.0
 10
505.848193232913
 20
400.9081731853632
 30
0.0
 10
505.5350340533038
 20
400.6625378772649
 30
0.0
 10
505.5350340533038
 20
400.1716117706168
 30
0.0
 10
505.5350340533038
 20
399.6889538931333
 30
0.0
 10
505.8313122650353
 20
399.4601995529127
 30
0.0
 10
506.5003498082708
 20
399.4601995529127
 30
0.0
 10
506.8476154331839
 20
399.4601995529127
 30
0.0
 10
507.15216187408
 20
399.4943059982167
 30
0.0
 10
507.4232908887692
 20
399.7395967967665
 30
0.0
 10
507.5672958800527
 20
399.8753335588854
 30
0.0
 10
507.6348197515636
 20
400.1123561282706
 30
0.0
 10
507.6348197515636
 20
400.4596217531837
 30
0.0
 10
507.6348197515636
 20
400.4596217531837
 30
0.0
 10
507.6348197515636
 20
400.9081731853632
 30
0.0
 10
507.6348197515636
 20
400.9081731853632
 30
0.0
 10
507.6348197515636
 20
400.9081731853632
 30
0.0
 10
506.4748561016799
 20
400.9081731853632
 30
0.0
 10
506.4748561016799
 20
400.9081731853632
 30
0.0
  0
HATCH
  5
313
330
2B9
100
AcDbEntity
  8
Layer 1
 62
     7
100
AcDbHatch
 10
0.0
 20
0.0
 30
0.0
210
0.0
220
0.0
230
1.0
  2
SOLID
 70
     1
 71
     0
 91
        2
 92
        1
 93
        1
 72
     4
 94
        3
 73
     0
 74
     1
 95
       47
 96
       43
 40
0.0
 40
0.0
 40
0.0
 40
0.0
 40
1.0
 40
1.0
 40
1.0
 40
2.0
 40
2.0
 40
2.0
 40
3.0
 40
3.0
 40
3.0
 40
4.0
 40
4.0
 40
4.0
 40
5.0
 40
5.0
 40
5.0
 40
6.0
 40
6.0
 40
6.0
 40
7.0
 40
7.0
 40
7.0
 40
8.0
 40
8.0
 40
8.0
 40
9.0
 40
9.0
 40
9.0
 40
10.0
 40
10.0
 40
10.0
 40
11.0
 40
11.0
 40
11.0
 40
12.0
 40
12.0
 40
12.0
 40
13.0
 40
13.0
 40
13.0
 40
14.0
 40
14.0
 40
14.0
 40
14.0
 10
508.2446016524528
 20
401.8142332979839
 10
508.2446016524528
 20
401.8142332979839
 10
508.2446016524528
 20
398.9861544141424
 10
508.2446016524528
 20
398.9861544141424
 10
508.2446016524528
 20
398.9861544141424
 10
507.6348197515636
 20
398.9861544141424
 10
507.6348197515636
 20
398.9861544141424
 10
507.6348197515636
 20
398.9861544141424
 10
507.6348197515636
 20
399.3840629426887
 10
507.6348197515636
 20
399.3840629426887
 10
507.3047796040766
 20
399.0540227952018
 10
506.9912759149188
 20
398.9355115105092
 10
506.4324814272114
 20
398.9355115105092
 10
505.8568059716261
 20
398.9355115105092
 10
505.5436467920169
 20
399.0367973177756
 10
505.25563680945
 20
399.3165390711778
 10
505.0437634371071
 20
399.5194551952591
 10
504.9421331202923
 20
399.8329588844168
 10
504.9421331202923
 20
400.1629990319037
 10
504.9421331202923
 20
400.8999049561987
 10
505.4588974430798
 20
401.3653373562559
 10
506.3901067527428
 20
401.3653373562559
 10
506.3901067527428
 20
401.3653373562559
 10
507.6348197515636
 20
401.3653373562559
 10
507.6348197515636
 20
401.3653373562559
 10
507.6348197515636
 20
401.3653373562559
 10
507.6348197515636
 20
401.7635903943508
 10
507.6348197515636
 20
401.7635903943508
 10
507.6348197515636
 20
402.3647595565269
 10
507.3385415398321
 20
402.6779187361361
 10
506.5678736797817
 20
402.6779187361361
 10
506.0431856373781
 20
402.6779187361361
 10
505.772056622689
 20
402.5425264835658
 10
505.518153085426
 20
402.1952608586526
 10
505.518153085426
 20
402.1952608586526
 10
505.1030190794534
 20
402.5762884193212
 10
505.1030190794534
 20
402.5762884193212
 10
505.4671656722443
 20
403.0589462968047
 10
505.8905679073815
 20
403.2029512880882
 10
506.5764864184948
 20
403.2029512880882
 10
507.7026881326229
 20
403.2029512880882
 10
508.2446016524528
 20
402.7116806718915
 10
508.2446016524528
 20
401.8142332979839
 97
        0
 92
        1
 93
        1
 72
     4
 94
        3
 73
     0
 74
     1
 95
       23
 96
       19
 40
0.0
 40
0.0
 40
0.0
 40
0.0
 40
1.0
 40
1.0
 40
1.0
 40
2.0
 40
2.0
 40
2.0
 40
3.0
 40
3.0
 40
3.0
 40
4.0
 40
4.0
 40
4.0
 40
5.0
 40
5.0
 40
5.0
 40
6.0
 40
6.0
 40
6.0
 40
6.0
 10
506.4748561016799
 20
400.9081731853632
 10
505.848193232913
 20
400.9081731853632
 10
505.5350340533038
 20
400.6625378772649
 10
505.5350340533038
 20
400.1716117706168
 10
505.5350340533038
 20
399.6889538931333
 10
505.8313122650353
 20
399.4601995529127
 10
506.5003498082708
 20
399.4601995529127
 10
506.8476154331839
 20
399.4601995529127
 10
507.15216187408
 20
399.4943059982167
 10
507.4232908887692
 20
399.7395967967665
 10
507.5672958800527
 20
399.8753335588854
 10
507.6348197515636
 20
400.1123561282706
 10
507.6348197515636
 20
400.4596217531837
 10
507.6348197515636
 20
400.4596217531837
 10
507.6348197515636
 20
400.9081731853632
 10
507.6348197515636
 20
400.9081731853632
 10
507.6348197515636
 20
400.9081731853632
 10
506.4748561016799
 20
400.9081731853632
 10
506.4748561016799
 20
400.9081731853632
 97
        0
 75
     2
 76
     1
 98
        0
  0
SPLINE
  5
314
330
2B9
100
AcDbEntity
  8
Layer 1
370
     0
100
AcDbSpline
210
0.0
220
0.0
230
1.0
 70
    11
 71
     3
 72
    38
 73
    34
 74
     0
 42
0.0000000001
 43
0.0000000001
 12
1.0
 22
0.0
 32
0.0
 13
1.0
 23
0.0
 33
0.0
 40
0.0
 40
0.0
 40
0.0
 40
0.0
 40
1.0
 40
1.0
 40
1.0
 40
2.0
 40
2.0
 40
2.0
 40
3.0
 40
3.0
 40
3.0
 40
4.0
 40
4.0
 40
4.0
 40
5.0
 40
5.0
 40
5.0
 40
6.0
 40
6.0
 40
6.0
 40
7.0
 40
7.0
 40
7.0
 40
8.0
 40
8.0
 40
8.0
 40
9.0
 40
9.0
 40
9.0
 40
10.0
 40
10.0
 40
10.0
 40
11.0
 40
11.0
 40
11.0
 40
11.0
 10
512.5285778883609
 20
402.8388046952973
 30
0.0
 10
512.9437118943335
 20
402.4240151988732
 30
0.0
 10
513.0367294724352
 20
401.7380966877599
 30
0.0
 10
513.0367294724352
 20
401.0690591445244
 30
0.0
 10
513.0367294724352
 20
400.4003661108374
 30
0.0
 10
512.9437118943335
 20
399.7227158288888
 30
0.0
 10
512.5285778883609
 20
399.2993135937516
 30
0.0
 10
512.3084362868535
 20
399.0791719922441
 30
0.0
 10
511.9446342036111
 20
398.9355115105092
 30
0.0
 10
511.5126192297607
 20
398.9355115105092
 30
0.0
 10
511.0554550588681
 20
398.9355115105092
 30
0.0
 10
510.6826957273641
 20
399.0454100564887
 30
0.0
 10
510.3357746119994
 20
399.477425030339
 30
0.0
 10
510.3357746119994
 20
399.477425030339
 30
0.0
 10
510.3357746119994
 20
397.1233912852678
 30
0.0
 10
510.3357746119994
 20
397.1233912852678
 30
0.0
 10
510.3357746119994
 20
397.1233912852678
 30
0.0
 10
509.7259927111102
 20
397.1233912852678
 30
0.0
 10
509.7259927111102
 20
397.1233912852678
 30
0.0
 10
509.7259927111102
 20
397.1233912852678
 30
0.0
 10
509.7259927111102
 20
403.1519638749065
 30
0.0
 10
509.7259927111102
 20
403.1519638749065
 30
0.0
 10
509.7259927111102
 20
403.1519638749065
 30
0.0
 10
510.3357746119994
 20
403.1519638749065
 30
0.0
 10
510.3357746119994
 20
403.1519638749065
 30
0.0
 10
510.3357746119994
 20
403.1519638749065
 30
0.0
 10
510.3357746119994
 20
402.6610377682584
 30
0.0
 10
510.3357746119994
 20
402.6610377682584
 30
0.0
 10
510.6826957273641
 20
403.0927082325602
 30
0.0
 10
511.046842320155
 20
403.2029512880882
 30
0.0
 10
511.5126192297607
 20
403.2029512880882
 30
0.0
 10
511.9446342036111
 20
403.2029512880882
 30
0.0
 10
512.3084362868535
 20
403.0589462968047
 30
0.0
 10
512.5285778883609
 20
402.8388046952973
 30
0.0
  0
SPLINE
  5
315
330
2B9
100
AcDbEntity
  8
Layer 1
370
     0
100
AcDbSpline
210
0.0
220
0.0
230
1.0
 70
    11
 71
     3
 72
    17
 73
    13
 74
     0
 42
0.0000000001
 43
0.0000000001
 12
1.0
 22
0.0
 32
0.0
 13
1.0
 23
0.0
 33
0.0
 40
0.0
 40
0.0
 40
0.0
 40
0.0
 40
1.0
 40
1.0
 40
1.0
 40
2.0
 40
2.0
 40
2.0
 40
3.0
 40
3.0
 40
3.0
 40
4.0
 40
4.0
 40
4.0
 40
4.0
 10
510.3357746119994
 20
401.0690591445244
 30
0.0
 10
510.3357746119994
 20
400.256361119554
 30
0.0
 10
510.4711668645697
 20
399.477425030339
 30
0.0
 10
511.385495206355
 20
399.477425030339
 30
0.0
 10
512.2915553189757
 20
399.477425030339
 30
0.0
 10
512.4269475715461
 20
400.256361119554
 30
0.0
 10
512.4269475715461
 20
401.0690591445244
 30
0.0
 10
512.4269475715461
 20
401.8821016790434
 30
0.0
 10
512.2915553189757
 20
402.6610377682584
 30
0.0
 10
511.385495206355
 20
402.6610377682584
 30
0.0
 10
510.4711668645697
 20
402.6610377682584
 30
0.0
 10
510.3357746119994
 20
401.8821016790434
 30
0.0
 10
510.3357746119994
 20
401.0690591445244
 30
0.0
  0
HATCH
  5
316
330
2B9
100
AcDbEntity
  8
Layer 1
 62
     7
100
AcDbHatch
 10
0.0
 20
0.0
 30
0.0
210
0.0
220
0.0
230
1.0
  2
SOLID
 70
     1
 71
     0
 91
        2
 92
        1
 93
        1
 72
     4
 94
        3
 73
     0
 74
     1
 95
       38
 96
       34
 40
0.0
 40
0.0
 40
0.0
 40
0.0
 40
1.0
 40
1.0
 40
1.0
 40
2.0
 40
2.0
 40
2.0
 40
3.0
 40
3.0
 40
3.0
 40
4.0
 40
4.0
 40
4.0
 40
5.0
 40
5.0
 40
5.0
 40
6.0
 40
6.0
 40
6.0
 40
7.0
 40
7.0
 40
7.0
 40
8.0
 40
8.0
 40
8.0
 40
9.0
 40
9.0
 40
9.0
 40
10.0
 40
10.0
 40
10.0
 40
11.0
 40
11.0
 40
11.0
 40
11.0
 10
512.5285778883609
 20
402.8388046952973
 10
512.9437118943335
 20
402.4240151988732
 10
513.0367294724352
 20
401.7380966877599
 10
513.0367294724352
 20
401.0690591445244
 10
513.0367294724352
 20
400.4003661108374
 10
512.9437118943335
 20
399.7227158288888
 10
512.5285778883609
 20
399.2993135937516
 10
512.3084362868535
 20
399.0791719922441
 10
511.9446342036111
 20
398.9355115105092
 10
511.5126192297607
 20
398.9355115105092
 10
511.0554550588681
 20
398.9355115105092
 10
510.6826957273641
 20
399.0454100564887
 10
510.3357746119994
 20
399.477425030339
 10
510.3357746119994
 20
399.477425030339
 10
510.3357746119994
 20
397.1233912852678
 10
510.3357746119994
 20
397.1233912852678
 10
510.3357746119994
 20
397.1233912852678
 10
509.7259927111102
 20
397.1233912852678
 10
509.7259927111102
 20
397.1233912852678
 10
509.7259927111102
 20
397.1233912852678
 10
509.7259927111102
 20
403.1519638749065
 10
509.7259927111102
 20
403.1519638749065
 10
509.7259927111102
 20
403.1519638749065
 10
510.3357746119994
 20
403.1519638749065
 10
510.3357746119994
 20
403.1519638749065
 10
510.3357746119994
 20
403.1519638749065
 10
510.3357746119994
 20
402.6610377682584
 10
510.3357746119994
 20
402.6610377682584
 10
510.6826957273641
 20
403.0927082325602
 10
511.046842320155
 20
403.2029512880882
 10
511.5126192297607
 20
403.2029512880882
 10
511.9446342036111
 20
403.2029512880882
 10
512.3084362868535
 20
403.0589462968047
 10
512.5285778883609
 20
402.8388046952973
 97
        0
 92
        1
 93
        1
 72
     4
 94
        3
 73
     0
 74
     1
 95
       17
 96
       13
 40
0.0
 40
0.0
 40
0.0
 40
0.0
 40
1.0
 40
1.0
 40
1.0
 40
2.0
 40
2.0
 40
2.0
 40
3.0
 40
3.0
 40
3.0
 40
4.0
 40
4.0
 40
4.0
 40
4.0
 10
510.3357746119994
 20
401.0690591445244
 10
510.3357746119994
 20
400.256361119554
 10
510.4711668645697
 20
399.477425030339
 10
511.385495206355
 20
399.477425030339
 10
512.2915553189757
 20
399.477425030339
 10
512.4269475715461
 20
400.256361119554
 10
512.4269475715461
 20
401.0690591445244
 10
512.4269475715461
 20
401.8821016790434
 10
512.2915553189757
 20
402.6610377682584
 10
511.385495206355
 20
402.6610377682584
 10
510.4711668645697
 20
402.6610377682584
 10
510.3357746119994
 20
401.8821016790434
 10
510.3357746119994
 20
401.0690591445244
 97
        0
 75
     2
 76
     1
 98
        0
  0
SPLINE
  5
317
330
2B9
100
AcDbEntity
  8
Layer 1
370
     0
100
AcDbSpline
210
0.0
220
0.0
230
1.0
 70
    11
 71
     3
 72
    53
 73
    49
 74
     0
 42
0.0000000001
 43
0.0000000001
 12
1.0
 22
0.0
 32
0.0
 13
1.0
 23
0.0
 33
0.0
 40
0.0
 40
0.0
 40
0.0
 40
0.0
 40
1.0
 40
1.0
 40
1.0
 40
2.0
 40
2.0
 40
2.0
 40
3.0
 40
3.0
 40
3.0
 40
4.0
 40
4.0
 40
4.0
 40
5.0
 40
5.0
 40
5.0
 40
6.0
 40
6.0
 40
6.0
 40
7.0
 40
7.0
 40
7.0
 40
8.0
 40
8.0
 40
8.0
 40
9.0
 40
9.0
 40
9.0
 40
10.0
 40
10.0
 40
10.0
 40
11.0
 40
11.0
 40
11.0
 40
12.0
 40
12.0
 40
12.0
 40
13.0
 40
13.0
 40
13.0
 40
14.0
 40
14.0
 40
14.0
 40
15.0
 40
15.0
 40
15.0
 40
16.0
 40
16.0
 40
16.0
 40
16.0
 10
517.1601642587308
 20
402.7540553463601
 30
0.0
 10
517.1601642587308
 20
402.7540553463601
 30
0.0
 10
516.761911220636
 20
402.3561468178137
 30
0.0
 10
516.761911220636
 20
402.3561468178137
 30
0.0
 10
516.4656330089044
 20
402.5849011580344
 30
0.0
 10
516.0846054482358
 20
402.6865314748492
 30
0.0
 10
515.652934983934
 20
402.6865314748492
 30
0.0
 10
515.0431530830448
 20
402.6865314748492
 30
0.0
 10
514.7213811647224
 20
402.4322834280378
 30
0.0
 10
514.7213811647224
 20
402.000612963736
 30
0.0
 10
514.7213811647224
 20
401.627853632232
 30
0.0
 10
514.9501355049431
 20
401.4418184760285
 30
0.0
 10
515.466555318182
 20
401.3908310628468
 30
0.0
 10
515.466555318182
 20
401.3908310628468
 30
0.0
 10
516.1183673839913
 20
401.3315754205005
 30
0.0
 10
516.1183673839913
 20
401.3315754205005
 30
0.0
 10
516.846660569573
 20
401.2640515489896
 30
0.0
 10
517.3461994149343
 20
400.9929225343004
 30
0.0
 10
517.3461994149343
 20
400.2053737063723
 30
0.0
 10
517.3461994149343
 20
399.4009439105665
 30
0.0
 10
516.6688936425342
 20
398.9355115105092
 30
0.0
 10
515.652934983934
 20
398.9355115105092
 30
0.0
 10
514.9415227662299
 20
398.9355115105092
 30
0.0
 10
514.3913410172355
 20
399.0963974696704
 30
0.0
 10
513.9424450755075
 20
399.5366806726853
 30
0.0
 10
513.9424450755075
 20
399.5366806726853
 30
0.0
 10
514.348966342767
 20
399.9428574303963
 30
0.0
 10
514.348966342767
 20
399.9428574303963
 30
0.0
 10
514.6707382610892
 20
399.6042045441962
 30
0.0
 10
515.127902431982
 20
399.4601995529127
 30
0.0
 10
515.6443222452209
 20
399.4601995529127
 30
0.0
 10
516.3385089854987
 20
399.4601995529127
 30
0.0
 10
516.7536429914713
 20
399.7058348610111
 30
0.0
 10
516.7536429914713
 20
400.1971054772077
 30
0.0
 10
516.7536429914713
 20
400.5695202991632
 30
0.0
 10
516.5503823578416
 20
400.7641681940798
 30
0.0
 10
516.059111741645
 20
400.8065428685484
 30
0.0
 10
516.059111741645
 20
400.8065428685484
 30
0.0
 10
515.3735377400802
 20
400.8657985108947
 30
0.0
 10
515.3735377400802
 20
400.8657985108947
 30
0.0
 10
514.5604952055613
 20
400.9336668919541
 30
0.0
 10
514.1288247412595
 20
401.2892007460319
 30
0.0
 10
514.1288247412595
 20
401.9837319958582
 30
0.0
 10
514.1288247412595
 20
402.7457871171955
 30
0.0
 10
514.763755839191
 20
403.2029512880882
 30
0.0
 10
515.6612032130986
 20
403.2029512880882
 30
0.0
 10
516.2623723752747
 20
403.2029512880882
 30
0.0
 10
516.7791366980622
 20
403.0589462968047
 30
0.0
 10
517.1601642587308
 20
402.7540553463601
 30
0.0
  0
HATCH
  5
318
330
2B9
100
AcDbEntity
  8
Layer 1
 62
     7
100
AcDbHatch
 10
0.0
 20
0.0
 30
0.0
210
0.0
220
0.0
230
1.0
  2
SOLID
 70
     1
 71
     0
 91
        1
 92
        1
 93
        1
 72
     4
 94
        3
 73
     0
 74
     1
 95
       53
 96
       49
 40
0.0
 40
0.0
 40
0.0
 40
0.0
 40
1.0
 40
1.0
 40
1.0
 40
2.0
 40
2.0
 40
2.0
 40
3.0
 40
3.0
 40
3.0
 40
4.0
 40
4.0
 40
4.0
 40
5.0
 40
5.0
 40
5.0
 40
6.0
 40
6.0
 40
6.0
 40
7.0
 40
7.0
 40
7.0
 40
8.0
 40
8.0
 40
8.0
 40
9.0
 40
9.0
 40
9.0
 40
10.0
 40
10.0
 40
10.0
 40
11.0
 40
11.0
 40
11.0
 40
12.0
 40
12.0
 40
12.0
 40
13.0
 40
13.0
 40
13.0
 40
14.0
 40
14.0
 40
14.0
 40
15.0
 40
15.0
 40
15.0
 40
16.0
 40
16.0
 40
16.0
 40
16.0
 10
517.1601642587308
 20
402.7540553463601
 10
517.1601642587308
 20
402.7540553463601
 10
516.761911220636
 20
402.3561468178137
 10
516.761911220636
 20
402.3561468178137
 10
516.4656330089044
 20
402.5849011580344
 10
516.0846054482358
 20
402.6865314748492
 10
515.652934983934
 20
402.6865314748492
 10
515.0431530830448
 20
402.6865314748492
 10
514.7213811647224
 20
402.4322834280378
 10
514.7213811647224
 20
402.000612963736
 10
514.7213811647224
 20
401.627853632232
 10
514.9501355049431
 20
401.4418184760285
 10
515.466555318182
 20
401.3908310628468
 10
515.466555318182
 20
401.3908310628468
 10
516.1183673839913
 20
401.3315754205005
 10
516.1183673839913
 20
401.3315754205005
 10
516.846660569573
 20
401.2640515489896
 10
517.3461994149343
 20
400.9929225343004
 10
517.3461994149343
 20
400.2053737063723
 10
517.3461994149343
 20
399.4009439105665
 10
516.6688936425342
 20
398.9355115105092
 10
515.652934983934
 20
398.9355115105092
 10
514.9415227662299
 20
398.9355115105092
 10
514.3913410172355
 20
399.0963974696704
 10
513.9424450755075
 20
399.5366806726853
 10
513.9424450755075
 20
399.5366806726853
 10
514.348966342767
 20
399.9428574303963
 10
514.348966342767
 20
399.9428574303963
 10
514.6707382610892
 20
399.6042045441962
 10
515.127902431982
 20
399.4601995529127
 10
515.6443222452209
 20
399.4601995529127
 10
516.3385089854987
 20
399.4601995529127
 10
516.7536429914713
 20
399.7058348610111
 10
516.7536429914713
 20
400.1971054772077
 10
516.7536429914713
 20
400.5695202991632
 10
516.5503823578416
 20
400.7641681940798
 10
516.059111741645
 20
400.8065428685484
 10
516.059111741645
 20
400.8065428685484
 10
515.3735377400802
 20
400.8657985108947
 10
515.3735377400802
 20
400.8657985108947
 10
514.5604952055613
 20
400.9336668919541
 10
514.1288247412595
 20
401.2892007460319
 10
514.1288247412595
 20
401.9837319958582
 10
514.1288247412595
 20
402.7457871171955
 10
514.763755839191
 20
403.2029512880882
 10
515.6612032130986
 20
403.2029512880882
 10
516.2623723752747
 20
403.2029512880882
 10
516.7791366980622
 20
403.0589462968047
 10
517.1601642587308
 20
402.7540553463601
 97
        0
 75
     2
 76
     1
 98
        0
  0
ENDBLK
  5
2BC
330
2B9
100
AcDbEntity
  8
0
100
AcDbBlockEnd
  0
ENDSEC
  0
SECTION
  2
ENTITIES
  0
INSERT
  5
42
330
1F
100
AcDbEntity
  8
Layer 1
100
AcDbBlockReference
  2
block 2
 10
0.0
 20
0.0
 30
0.0
  0
INSERT
  5
84
330
1F
100
AcDbEntity
  8
Layer 1
100
AcDbBlockReference
  2
block 3
 10
0.0
 20
0.0
 30
0.0
  0
INSERT
  5
C3
330
1F
100
AcDbEntity
  8
Layer 1
100
AcDbBlockReference
  2
block 4
 10
0.0
 20
0.0
 30
0.0
  0
INSERT
  5
EC
330
1F
100
AcDbEntity
  8
Layer 1
100
AcDbBlockReference
  2
block 5
 10
0.0
 20
0.0
 30
0.0
  0
POLYLINE
  5
F8
330
1F
100
AcDbEntity
  8
Layer 1
 62
    40
370
    13
100
AcDb2dPolyline
 66
     1
 10
0.0
 20
0.0
 30
0.0
  0
VERTEX
  5
F9
330
F8
100
AcDbEntity
  8
Layer 1
 62
    40
370
    13
100
AcDbVertex
100
AcDb2dVertex
 10
94.018132952168
 20
647.6935898979441
 30
0.0
  0
VERTEX
  5
FA
330
F8
100
AcDbEntity
  8
Layer 1
 62
    40
370
    13
100
AcDbVertex
100
AcDb2dVertex
 10
19.01827504719834
 20
647.6935898979441
 30
0.0
  0
SEQEND
  5
FB
330
F8
100
AcDbEntity
  8
Layer 1
 62
    40
370
    13
  0
POLYLINE
  5
FC
330
1F
100
AcDbEntity
  8
Layer 1
 62
    40
370
    13
100
AcDb2dPolyline
 66
     1
 10
0.0
 20
0.0
 30
0.0
  0
VERTEX
  5
FD
330
FC
100
AcDbEntity
  8
Layer 1
 62
    40
370
    13
100
AcDbVertex
100
AcDb2dVertex
 10
19.01814585611765
 20
647.6935898979441
 30
0.0
  0
VERTEX
  5
FE
330
FC
100
AcDbEntity
  8
Layer 1
 62
    40
370
    13
100
AcDbVertex
100
AcDb2dVertex
 10
94.01798222924052
 20
647.6935898979441
 30
0.0
  0
SEQEND
  5
FF
330
FC
100
AcDbEntity
  8
Layer 1
 62
    40
370
    13
  0
INSERT
  5
101
330
1F
100
AcDbEntity
  8
Layer 1
100
AcDbBlockReference
  2
block 6
 10
0.0
 20
0.0
 30
0.0
  0
POLYLINE
  5
1A3
330
1F
100
AcDbEntity
  8
Layer 1
 62
    40
370
    13
100
AcDb2dPolyline
 66
     1
 10
0.0
 20
0.0
 30
0.0
  0
VERTEX
  5
1A4
330
1A3
100
AcDbEntity
  8
Layer 1
 62
    40
370
    13
100
AcDbVertex
100
AcDb2dVertex
 10
94.01798222924052
 20
652.6935861667679
 30
0.0
  0
VERTEX
  5
1A5
330
1A3
100
AcDbEntity
  8
Layer 1
 62
    40
370
    13
100
AcDbVertex
100
AcDb2dVertex
 10
94.01798222924052
 20
647.6936329616376
 30
0.0
  0
VERTEX
  5
1A6
330
1A3
100
AcDbEntity
  8
Layer 1
 62
    40
370
    13
100
AcDbVertex
100
AcDb2dVertex
 10
19.01814585611765
 20
647.6936329616376
 30
0.0
  0
VERTEX
  5
1A7
330
1A3
100
AcDbEntity
  8
Layer 1
 62
    40
370
    13
100
AcDbVertex
100
AcDb2dVertex
 10
19.01814585611765
 20
652.6935861667679
 30
0.0
  0
VERTEX
  5
1A8
330
1A3
100
AcDbEntity
  8
Layer 1
 62
    40
370
    13
100
AcDbVertex
100
AcDb2dVertex
 10
94.01798222924052
 20
652.6935861667679
 30
0.0
  0
SEQEND
  5
1A9
330
1A3
100
AcDbEntity
  8
Layer 1
 62
    40
370
    13
  0
POLYLINE
  5
1AA
330
1F
100
AcDbEntity
  8
Layer 1
 62
    40
370
    13
100
AcDb2dPolyline
 66
     1
 10
0.0
 20
0.0
 30
0.0
  0
VERTEX
  5
1AB
330
1AA
100
AcDbEntity
  8
Layer 1
 62
    40
370
    13
100
AcDbVertex
100
AcDb2dVertex
 10
189.3830268627886
 20
565.6257740954359
 30
0.0
  0
VERTEX
  5
1AC
330
1AA
100
AcDbEntity
  8
Layer 1
 62
    40
370
    13
100
AcDbVertex
100
AcDb2dVertex
 10
189.3830268627886
 20
250.6259015003034
 30
0.0
  0
VERTEX
  5
1AD
330
1AA
100
AcDbEntity
  8
Layer 1
 62
    40
370
    13
100
AcDbVertex
100
AcDb2dVertex
 10
184.3830736576584
 20
250.6259015003034
 30
0.0
  0
VERTEX
  5
1AE
330
1AA
100
AcDbEntity
  8
Layer 1
 62
    40
370
    13
100
AcDbVertex
100
AcDb2dVertex
 10
184.3830736576584
 20
565.6257740954359
 30
0.0
  0
VERTEX
  5
1AF
330
1AA
100
AcDbEntity
  8
Layer 1
 62
    40
370
    13
100
AcDbVertex
100
AcDb2dVertex
 10
189.3830268627886
 20
565.6257740954359
 30
0.0
  0
SEQEND
  5
1B0
330
1AA
100
AcDbEntity
  8
Layer 1
 62
    40
370
    13
  0
INSERT
  5
1B2
330
1F
100
AcDbEntity
  8
Layer 1
100
AcDbBlockReference
  2
block 7
 10
0.0
 20
0.0
 30
0.0
  0
INSERT
  5
2A8
330
1F
100
AcDbEntity
  8
Layer 1
100
AcDbBlockReference
  2
block 8
 10
0.0
 20
0.0
 30
0.0
  0
ENDSEC
  0
SECTION
  2
OBJECTS
  0
DICTIONARY
  5
C
330
0
100
AcDbDictionary
281
     1
  3
ACAD_GROUP
350
D
  3
ACAD_LAYOUT
350
1A
  3
ACAD_MATERIAL
350
3B
  3
ACAD_MLEADERSTYLE
350
31B
  3
ACAD_MLINESTYLE
350
17
  3
ACAD_PLOTSETTINGS
350
19
  3
ACAD_PLOTSTYLENAME
350
E
  3
ACAD_VISUALSTYLE
350
2A
  3
AcDbVariableDictionary
350
319
  0
DICTIONARY
  5
D
102
{ACAD_REACTORS
330
C
102
}
330
C
100
AcDbDictionary
281
     1
  0
DICTIONARY
  5
1A
102
{ACAD_REACTORS
330
C
102
}
330
C
100
AcDbDictionary
281
     1
  3
Layout1
350
1E
  3
Layout2
350
26
  3
Model
350
22
  0
DICTIONARY
  5
3B
102
{ACAD_REACTORS
330
C
102
}
330
C
100
AcDbDictionary
281
     1
  3
ByBlock
350
3D
  3
ByLayer
350
3C
  3
Global
350
3E
  0
DICTIONARY
  5
31B
102
{ACAD_REACTORS
330
C
102
}
330
C
100
AcDbDictionary
281
     1
  0
DICTIONARY
  5
17
102
{ACAD_REACTORS
330
C
102
}
330
C
100
AcDbDictionary
281
     1
  3
Standard
350
18
  0
DICTIONARY
  5
19
102
{ACAD_REACTORS
330
C
102
}
330
C
100
AcDbDictionary
281
     1
  0
ACDBDICTIONARYWDFLT
  5
E
102
{ACAD_REACTORS
330
C
102
}
330
C
100
AcDbDictionary
281
     1
  3
Normal
350
F
100
AcDbDictionaryWithDefault
340
F
  0
DICTIONARY
  5
2A
102
{ACAD_REACTORS
330
C
102
}
330
C
100
AcDbDictionary
281
     1
  3
2dWireframe
350
2F
  3
3D Hidden
350
31
  3
3dWireframe
350
30
  3
Basic
350
32
  3
Brighten
350
36
  3
ColorChange
350
3A
  3
Conceptual
350
34
  3
Dim
350
35
  3
Facepattern
350
39
  3
Flat
350
2B
  3
FlatWithEdges
350
2C
  3
Gouraud
350
2D
  3
GouraudWithEdges
350
2E
  3
Linepattern
350
38
  3
Realistic
350
33
  3
Thicken
350
37
  0
DICTIONARY
  5
319
102
{ACAD_REACTORS
330
C
102
}
330
C
100
AcDbDictionary
281
     1
  3
DIMASSOC
350
31C
  3
HIDETEXT
350
31D
  0
LAYOUT
  5
1E
102
{ACAD_REACTORS
330
1A
102
}
330
1A
100
AcDbPlotSettings
  1

  2
none_device
  4

  6

 40
0.0
 41
0.0
 42
0.0
 43
0.0
 44
0.0
 45
0.0
 46
0.0
 47
0.0
 48
0.0
 49
0.0
140
0.0
141
0.0
142
1.0
143
1.0
 70
   688
 72
     0
 73
     0
 74
     5
  7

 75
    16
147
1.0
148
0.0
149
0.0
100
AcDbLayout
  1
Layout1
 70
     1
 71
     1
 10
0.0
 20
0.0
 11
12.0
 21
9.0
 12
0.0
 22
0.0
 32
0.0
 14
1.000000000000000E+20
 24
1.000000000000000E+20
 34
1.000000000000000E+20
 15
-1.000000000000000E+20
 25
-1.000000000000000E+20
 35
-1.000000000000000E+20
146
0.0
 13
0.0
 23
0.0
 33
0.0
 16
1.0
 26
0.0
 36
0.0
 17
0.0
 27
1.0
 37
0.0
 76
     0
330
1B
  0
LAYOUT
  5
26
102
{ACAD_REACTORS
330
1A
102
}
330
1A
100
AcDbPlotSettings
  1

  2
none_device
  4

  6

 40
0.0
 41
0.0
 42
0.0
 43
0.0
 44
0.0
 45
0.0
 46
0.0
 47
0.0
 48
0.0
 49
0.0
140
0.0
141
0.0
142
1.0
143
1.0
 70
   688
 72
     0
 73
     0
 74
     5
  7

 75
    16
147
1.0
148
0.0
149
0.0
100
AcDbLayout
  1
Layout2
 70
     1
 71
     2
 10
0.0
 20
0.0
 11
0.0
 21
0.0
 12
0.0
 22
0.0
 32
0.0
 14
0.0
 24
0.0
 34
0.0
 15
0.0
 25
0.0
 35
0.0
146
0.0
 13
0.0
 23
0.0
 33
0.0
 16
1.0
 26
0.0
 36
0.0
 17
0.0
 27
1.0
 37
0.0
 76
     0
330
23
  0
LAYOUT
  5
22
102
{ACAD_REACTORS
330
1A
102
}
330
1A
100
AcDbPlotSettings
  1

  2
none_device
  4

  6

 40
0.0
 41
0.0
 42
0.0
 43
0.0
 44
0.0
 45
0.0
 46
0.0
 47
0.0
 48
0.0
 49
0.0
140
0.0
141
0.0
142
1.0
143
1.0
 70
  1712
 72
     0
 73
     0
 74
     0
  7

 75
     0
147
1.0
148
0.0
149
0.0
100
AcDbLayout
  1
Model
 70
     1
 71
     0
 10
0.0
 20
0.0
 11
12.0
 21
9.0
 12
0.0
 22
0.0
 32
0.0
 14
1.000000000000000E+20
 24
1.000000000000000E+20
 34
1.000000000000000E+20
 15
-1.000000000000000E+20
 25
-1.000000000000000E+20
 35
-1.000000000000000E+20
146
0.0
 13
0.0
 23
0.0
 33
0.0
 16
1.0
 26
0.0
 36
0.0
 17
0.0
 27
1.0
 37
0.0
 76
     0
330
1F
331
29
  0
MATERIAL
  5
3D
102
{ACAD_REACTORS
330
3B
102
}
102
{ACAD_XDICTIONARY
360
340
102
}
330
3B
100
AcDbMaterial
  1
ByBlock
  0
MATERIAL
  5
3C
102
{ACAD_REACTORS
330
3B
102
}
102
{ACAD_XDICTIONARY
360
33E
102
}
330
3B
100
AcDbMaterial
  1
ByLayer
  0
MATERIAL
  5
3E
102
{ACAD_REACTORS
330
3B
102
}
102
{ACAD_XDICTIONARY
360
342
102
}
330
3B
100
AcDbMaterial
  1
Global
  0
MLINESTYLE
  5
18
102
{ACAD_REACTORS
330
17
102
}
330
17
100
AcDbMlineStyle
  2
Standard
 70
     0
  3

 62
   256
 51
90.0
 52
90.0
 71
     2
 49
0.5
 62
   256
  6
BYLAYER
 49
-0.5
 62
   256
  6
BYLAYER
  0
ACDBPLACEHOLDER
  5
F
102
{ACAD_REACTORS
330
E
102
}
330
E
  0
VISUALSTYLE
  5
2F
102
{ACAD_REACTORS
330
2A
102
}
102
{ACAD_XDICTIONARY
360
326
102
}
330
2A
100
AcDbVisualStyle
  2
2dWireframe
 70
     4
 71
     0
 72
     2
 73
     0
 90
        0
 40
-0.6
 41
-30.0
 62
     5
 63
     7
 74
     1
 91
        4
 64
     7
 65
   257
 75
     1
175
     1
 42
1.0
 92
        0
 66
   257
 43
1.0
 76
     1
 77
     6
 78
     2
 67
     7
 79
     5
170
     0
171
     0
290
     0
174
     0
 93
        1
 44
0.0
173
     0
291
     0
 45
0.0
1001
ACAD
1000
AcDbSavedByObjectVersion
1070
     0
  0
VISUALSTYLE
  5
31
102
{ACAD_REACTORS
330
2A
102
}
102
{ACAD_XDICTIONARY
360
32A
102
}
330
2A
100
AcDbVisualStyle
  2
3D Hidden
 70
     6
 71
     1
 72
     2
 73
     2
 90
        0
 40
-0.6
 41
-30.0
 62
     5
 63
     7
 74
     2
 91
        2
 64
     7
 65
   257
 75
     2
175
     1
 42
40.0
 92
        0
 66
   257
 43
1.0
 76
     1
 77
     6
 78
     2
 67
     7
 79
     3
170
     0
171
     0
290
     0
174
     0
 93
        1
 44
0.0
173
     0
291
     0
 45
0.0
1001
ACAD
1000
AcDbSavedByObjectVersion
1070
     0
  0
VISUALSTYLE
  5
30
102
{ACAD_REACTORS
330
2A
102
}
102
{ACAD_XDICTIONARY
360
328
102
}
330
2A
100
AcDbVisualStyle
  2
3dWireframe
 70
     5
 71
     0
 72
     2
 73
     0
 90
        0
 40
-0.6
 41
-30.0
 62
     5
 63
     7
 74
     1
 91
        4
 64
     7
 65
   257
 75
     1
175
     1
 42
1.0
 92
        0
 66
   257
 43
1.0
 76
     1
 77
     6
 78
     2
 67
     7
 79
     5
170
     0
171
     0
290
     0
174
     0
 93
        1
 44
0.0
173
     0
291
     0
 45
0.0
1001
ACAD
1000
AcDbSavedByObjectVersion
1070
     0
  0
VISUALSTYLE
  5
32
102
{ACAD_REACTORS
330
2A
102
}
102
{ACAD_XDICTIONARY
360
32C
102
}
330
2A
100
AcDbVisualStyle
  2
Basic
 70
     7
 71
     1
 72
     0
 73
     1
 90
        0
 40
-0.6
 41
-30.0
 62
     5
 63
     7
 74
     0
 91
        4
 64
     7
 65
   257
 75
     1
175
     1
 42
1.0
 92
        8
 66
     7
 43
1.0
 76
     1
 77
     6
 78
     2
 67
     7
 79
     5
170
     0
171
     0
290
     0
174
     0
 93
        1
 44
0.0
173
     0
291
     1
 45
0.0
1001
ACAD
1000
AcDbSavedByObjectVersion
1070
     0
  0
VISUALSTYLE
  5
36
102
{ACAD_REACTORS
330
2A
102
}
102
{ACAD_XDICTIONARY
360
334
102
}
330
2A
100
AcDbVisualStyle
  2
Brighten
 70
    12
 71
     2
 72
     2
 73
     0
 90
        0
 40
-0.6
 41
-30.0
 62
     5
 63
     7
 74
     1
 91
        4
 64
     7
 65
   257
 75
     1
175
     1
 42
1.0
 92
        8
 66
     7
 43
1.0
 76
     1
 77
     6
 78
     2
 67
     7
 79
     5
170
     0
171
     0
290
     0
174
     0
 93
        1
 44
50.0
173
     0
291
     1
 45
0.0
1001
ACAD
1000
AcDbSavedByObjectVersion
1070
     0
  0
VISUALSTYLE
  5
3A
102
{ACAD_REACTORS
330
2A
102
}
102
{ACAD_XDICTIONARY
360
33C
102
}
330
2A
100
AcDbVisualStyle
  2
ColorChange
 70
    16
 71
     2
 72
     2
 73
     3
 90
        0
 40
-0.6
 41
-30.0
 62
     5
 63
     8
 74
     1
 91
        4
 64
     7
 65
   257
 75
     1
175
     1
 42
1.0
 92
        8
 66
     8
 43
1.0
 76
     1
 77
     6
 78
     2
 67
     7
 79
     5
170
     0
171
     0
290
     0
174
     0
 93
        1
 44
0.0
173
     0
291
     1
 45
0.0
1001
ACAD
1000
AcDbSavedByObjectVersion
1070
     0
  0
VISUALSTYLE
  5
34
102
{ACAD_REACTORS
330
2A
102
}
102
{ACAD_XDICTIONARY
360
330
102
}
330
2A
100
AcDbVisualStyle
  2
Conceptual
 70
     9
 71
     3
 72
     2
 73
     0
 90
        0
 40
-0.6
 41
-30.0
 62
     5
 63
     7
 74
     2
 91
        2
 64
     7
 65
   257
 75
     1
175
     1
 42
40.0
 92
        8
 66
     7
 43
1.0
 76
     1
 77
     6
 78
     2
 67
     7
 79
     3
170
     0
171
     0
290
     0
174
     0
 93
        1
 44
0.0
173
     0
291
     0
 45
0.0
1001
ACAD
1000
AcDbSavedByObjectVersion
1070
     0
  0
VISUALSTYLE
  5
35
102
{ACAD_REACTORS
330
2A
102
}
102
{ACAD_XDICTIONARY
360
332
102
}
330
2A
100
AcDbVisualStyle
  2
Dim
 70
    11
 71
     2
 72
     2
 73
     0
 90
        0
 40
-0.6
 41
-30.0
 62
     5
 63
     7
 74
     1
 91
        4
 64
     7
 65
   257
 75
     1
175
     1
 42
1.0
 92
        8
 66
     7
 43
1.0
 76
     1
 77
     6
 78
     2
 67
     7
 79
     5
170
     0
171
     0
290
     0
174
     0
 93
        1
 44
-50.0
173
     0
291
     1
 45
0.0
1001
ACAD
1000
AcDbSavedByObjectVersion
1070
     0
  0
VISUALSTYLE
  5
39
102
{ACAD_REACTORS
330
2A
102
}
102
{ACAD_XDICTIONARY
360
33A
102
}
330
2A
100
AcDbVisualStyle
  2
Facepattern
 70
    15
 71
     2
 72
     2
 73
     0
 90
        0
 40
-0.6
 41
-30.0
 62
     5
 63
     7
 74
     1
 91
        4
 64
     7
 65
   257
 75
     1
175
     1
 42
1.0
 92
        8
 66
     7
 43
1.0
 76
     1
 77
     6
 78
     2
 67
     7
 79
     5
170
     0
171
     0
290
     0
174
     0
 93
        1
 44
0.0
173
     0
291
     1
 45
0.0
1001
ACAD
1000
AcDbSavedByObjectVersion
1070
     0
  0
VISUALSTYLE
  5
2B
102
{ACAD_REACTORS
330
2A
102
}
102
{ACAD_XDICTIONARY
360
31E
102
}
330
2A
100
AcDbVisualStyle
  2
Flat
 70
     0
 71
     2
 72
     1
 73
     1
 90
        2
 40
-0.6
 41
30.0
 62
     5
 63
     7
 74
     0
 91
        4
 64
     7
 65
   257
 75
     1
175
     1
 42
1.0
 92
        8
 66
     7
 43
1.0
 76
     1
 77
     6
 78
     2
 67
     7
 79
     5
170
     0
171
     0
290
     0
174
     0
 93
       13
 44
0.0
173
     0
291
     1
 45
0.0
1001
ACAD
1000
AcDbSavedByObjectVersion
1070
     0
  0
VISUALSTYLE
  5
2C
102
{ACAD_REACTORS
330
2A
102
}
102
{ACAD_XDICTIONARY
360
320
102
}
330
2A
100
AcDbVisualStyle
  2
FlatWithEdges
 70
     1
 71
     2
 72
     1
 73
     1
 90
        2
 40
-0.6
 41
30.0
 62
     5
 63
     7
 74
     1
 91
        4
 64
     7
 65
   257
 75
     1
175
     1
 42
1.0
 92
        0
 66
   257
 43
1.0
 76
     1
 77
     6
 78
     2
 67
     7
 79
     5
170
     0
171
     0
290
     0
174
     0
 93
       13
 44
0.0
173
     0
291
     1
 45
0.0
1001
ACAD
1000
AcDbSavedByObjectVersion
1070
     0
  0
VISUALSTYLE
  5
2D
102
{ACAD_REACTORS
330
2A
102
}
102
{ACAD_XDICTIONARY
360
322
102
}
330
2A
100
AcDbVisualStyle
  2
Gouraud
 70
     2
 71
     2
 72
     2
 73
     1
 90
        2
 40
-0.6
 41
30.0
 62
     5
 63
     7
 74
     0
 91
        4
 64
     7
 65
   257
 75
     1
175
     1
 42
1.0
 92
        0
 66
     7
 43
1.0
 76
     1
 77
     6
 78
     2
 67
     7
 79
     5
170
     0
171
     0
290
     0
174
     0
 93
       13
 44
0.0
173
     0
291
     1
 45
0.0
1001
ACAD
1000
AcDbSavedByObjectVersion
1070
     0
  0
VISUALSTYLE
  5
2E
102
{ACAD_REACTORS
330
2A
102
}
102
{ACAD_XDICTIONARY
360
324
102
}
330
2A
100
AcDbVisualStyle
  2
GouraudWithEdges
 70
     3
 71
     2
 72
     2
 73
     1
 90
        2
 40
-0.6
 41
30.0
 62
     5
 63
     7
 74
     1
 91
        4
 64
     7
 65
   257
 75
     1
175
     1
 42
1.0
 92
        0
 66
   257
 43
1.0
 76
     1
 77
     6
 78
     2
 67
     7
 79
     5
170
     0
171
     0
290
     0
174
     0
 93
       13
 44
0.0
173
     0
291
     1
 45
0.0
1001
ACAD
1000
AcDbSavedByObjectVersion
1070
     0
  0
VISUALSTYLE
  5
38
102
{ACAD_REACTORS
330
2A
102
}
102
{ACAD_XDICTIONARY
360
338
102
}
330
2A
100
AcDbVisualStyle
  2
Linepattern
 70
    14
 71
     2
 72
     2
 73
     0
 90
        0
 40
-0.6
 41
-30.0
 62
     5
 63
     7
 74
     1
 91
        4
 64
     7
 65
   257
 75
     7
175
     7
 42
1.0
 92
        8
 66
     7
 43
1.0
 76
     1
 77
     6
 78
     2
 67
     7
 79
     5
170
     0
171
     0
290
     0
174
     0
 93
        1
 44
0.0
173
     0
291
     1
 45
0.0
1001
ACAD
1000
AcDbSavedByObjectVersion
1070
     0
  0
VISUALSTYLE
  5
33
102
{ACAD_REACTORS
330
2A
102
}
102
{ACAD_XDICTIONARY
360
32E
102
}
330
2A
100
AcDbVisualStyle
  2
Realistic
 70
     8
 71
     2
 72
     2
 73
     0
 90
        0
 40
-0.6
 41
-30.0
 62
     5
 63
     7
 74
     1
 91
        0
 64
     7
 65
   257
 75
     1
175
     1
 42
1.0
 92
        8
 66
     8
 43
1.0
 76
     1
 77
     6
 78
     2
 67
     7
 79
     5
170
     0
171
     0
290
     0
174
     0
 93
       13
 44
0.0
173
     0
291
     0
 45
0.0
1001
ACAD
1000
AcDbSavedByObjectVersion
1070
     0
  0
VISUALSTYLE
  5
37
102
{ACAD_REACTORS
330
2A
102
}
102
{ACAD_XDICTIONARY
360
336
102
}
330
2A
100
AcDbVisualStyle
  2
Thicken
 70
    13
 71
     2
 72
     2
 73
     0
 90
        0
 40
-0.6
 41
-30.0
 62
     5
 63
     7
 74
     1
 91
        4
 64
     7
 65
   257
 75
     1
175
     1
 42
1.0
 92
       12
 66
     7
 43
1.0
 76
     1
 77
     6
 78
     2
 67
     7
 79
     5
170
     0
171
     0
290
     0
174
     0
 93
        1
 44
0.0
173
     0
291
     1
 45
0.0
1001
ACAD
1000
AcDbSavedByObjectVersion
1070
     0
  0
DICTIONARYVAR
  5
31C
102
{ACAD_REACTORS
330
319
102
}
330
319
100
DictionaryVariables
280
     0
  1
2
  0
DICTIONARYVAR
  5
31D
102
{ACAD_REACTORS
330
319
102
}
330
319
100
DictionaryVariables
280
     0
  1
1
  0
DICTIONARY
  5
340
330
3D
100
AcDbDictionary
280
     1
281
     1
  3
ACAD_XREC_ROUNDTRIP
360
341
  0
DICTIONARY
  5
33E
330
3C
100
AcDbDictionary
280
     1
281
     1
  3
ACAD_XREC_ROUNDTRIP
360
33F
  0
DICTIONARY
  5
342
330
3E
100
AcDbDictionary
280
     1
281
     1
  3
ACAD_XREC_ROUNDTRIP
360
343
  0
DICTIONARY
  5
326
330
2F
100
AcDbDictionary
280
     1
281
     1
  3
ACAD_XREC_ROUNDTRIP
360
327
  0
DICTIONARY
  5
32A
330
31
100
AcDbDictionary
280
     1
281
     1
  3
ACAD_XREC_ROUNDTRIP
360
32B
  0
DICTIONARY
  5
328
330
30
100
AcDbDictionary
280
     1
281
     1
  3
ACAD_XREC_ROUNDTRIP
360
329
  0
DICTIONARY
  5
32C
330
32
100
AcDbDictionary
280
     1
281
     1
  3
ACAD_XREC_ROUNDTRIP
360
32D
  0
DICTIONARY
  5
334
330
36
100
AcDbDictionary
280
     1
281
     1
  3
ACAD_XREC_ROUNDTRIP
360
335
  0
DICTIONARY
  5
33C
330
3A
100
AcDbDictionary
280
     1
281
     1
  3
ACAD_XREC_ROUNDTRIP
360
33D
  0
DICTIONARY
  5
330
330
34
100
AcDbDictionary
280
     1
281
     1
  3
ACAD_XREC_ROUNDTRIP
360
331
  0
DICTIONARY
  5
332
330
35
100
AcDbDictionary
280
     1
281
     1
  3
ACAD_XREC_ROUNDTRIP
360
333
  0
DICTIONARY
  5
33A
330
39
100
AcDbDictionary
280
     1
281
     1
  3
ACAD_XREC_ROUNDTRIP
360
33B
  0
DICTIONARY
  5
31E
330
2B
100
AcDbDictionary
280
     1
281
     1
  3
ACAD_XREC_ROUNDTRIP
360
31F
  0
DICTIONARY
  5
320
330
2C
100
AcDbDictionary
280
     1
281
     1
  3
ACAD_XREC_ROUNDTRIP
360
321
  0
DICTIONARY
  5
322
330
2D
100
AcDbDictionary
280
     1
281
     1
  3
ACAD_XREC_ROUNDTRIP
360
323
  0
DICTIONARY
  5
324
330
2E
100
AcDbDictionary
280
     1
281
     1
  3
ACAD_XREC_ROUNDTRIP
360
325
  0
DICTIONARY
  5
338
330
38
100
AcDbDictionary
280
     1
281
     1
  3
ACAD_XREC_ROUNDTRIP
360
339
  0
DICTIONARY
  5
32E
330
33
100
AcDbDictionary
280
     1
281
     1
  3
ACAD_XREC_ROUNDTRIP
360
32F
  0
DICTIONARY
  5
336
330
37
100
AcDbDictionary
280
     1
281
     1
  3
ACAD_XREC_ROUNDTRIP
360
337
  0
XRECORD
  5
341
102
{ACAD_REACTORS
330
340
102
}
330
340
100
AcDbXrecord
280
     1
102
MATERIAL
148
0.0
149
0.0
149
0.0
 93
        0
 94
      127
282
     0
 72
     1
 77
     1
171
     1
175
     1
179
     1
273
     0
  0
XRECORD
  5
33F
102
{ACAD_REACTORS
330
33E
102
}
330
33E
100
AcDbXrecord
280
     1
102
MATERIAL
148
0.0
149
0.0
149
0.0
 93
        0
 94
      127
282
     0
 72
     1
 77
     1
171
     1
175
     1
179
     1
273
     0
  0
XRECORD
  5
343
102
{ACAD_REACTORS
330
342
102
}
330
342
100
AcDbXrecord
280
     1
102
MATERIAL
148
0.0
149
0.0
149
0.0
 93
        0
 94
      127
282
     0
 72
     1
 77
     1
171
     1
175
     1
179
     1
273
     0
  0
XRECORD
  5
327
102
{ACAD_REACTORS
330
326
102
}
330
326
100
AcDbXrecord
280
     1
102
RTVSPropertyOp0
 70
     1
102
RTVSPropertyOp1
 70
     1
102
RTVSPropertyOp2
 70
     1
102
RTVSPropertyOp3
 70
     1
102
RTVSPropertyOp4
 70
     1
102
RTVSPropertyOp5
 70
     1
102
RTVSPropertyOp6
 70
     1
102
RTVSPropertyOp7
 70
     1
102
RTVSPropertyOp8
 70
     1
102
RTVSPropertyOp9
 70
     1
102
RTVSPropertyOp10
 70
     1
102
RTVSPropertyOp11
 70
     1
102
RTVSPropertyOp12
 70
     1
102
RTVSPropertyOp13
 70
     1
102
RTVSPropertyOp14
 70
     1
102
RTVSPropertyOp15
 70
     1
102
RTVSPropertyOp16
 70
     1
102
RTVSPropertyOp17
 70
     1
102
RTVSPropertyOp18
 70
     1
102
RTVSPropertyOp19
 70
     1
102
RTVSPropertyOp20
 70
     1
102
RTVSPropertyOp21
 70
     1
102
RTVSPropertyOp22
 70
     1
102
RTVSPropertyOp23
 70
     1
102
RTVSPropertyOp24
 70
     1
102
RTVSPropertyOp25
 70
     1
102
RTVSPropertyOp26
 70
     1
102
RTVSPropertyOp27
 70
     1
102
RTVSPropertyOp28
 70
     1
102
RTVSPropertyOp29
 70
     1
102
RTVSPropertyOp30
 70
     1
102
RTVSPropertyOp31
 70
     1
102
RTVSPropertyOp32
 70
     1
  0
XRECORD
  5
32B
102
{ACAD_REACTORS
330
32A
102
}
330
32A
100
AcDbXrecord
280
     1
102
RTVSPropertyOp0
 70
     1
102
RTVSPropertyOp1
 70
     1
102
RTVSPropertyOp2
 70
     1
102
RTVSPropertyOp3
 70
     1
102
RTVSPropertyOp4
 70
     1
102
RTVSPropertyOp5
 70
     1
102
RTVSPropertyOp6
 70
     1
102
RTVSPropertyOp7
 70
     1
102
RTVSPropertyOp8
 70
     1
102
RTVSPropertyOp9
 70
     1
102
RTVSPropertyOp10
 70
     1
102
RTVSPropertyOp11
 70
     1
102
RTVSPropertyOp12
 70
     1
102
RTVSPropertyOp13
 70
     1
102
RTVSPropertyOp14
 70
     1
102
RTVSPropertyOp15
 70
     1
102
RTVSPropertyOp16
 70
     1
102
RTVSPropertyOp17
 70
     1
102
RTVSPropertyOp18
 70
     1
102
RTVSPropertyOp19
 70
     1
102
RTVSPropertyOp20
 70
     1
102
RTVSPropertyOp21
 70
     1
102
RTVSPropertyOp22
 70
     1
102
RTVSPropertyOp23
 70
     1
102
RTVSPropertyOp24
 70
     1
102
RTVSPropertyOp25
 70
     1
102
RTVSPropertyOp26
 70
     1
102
RTVSPropertyOp27
 70
     1
102
RTVSPropertyOp28
 70
     1
102
RTVSPropertyOp29
 70
     1
102
RTVSPropertyOp30
 70
     1
102
RTVSPropertyOp31
 70
     1
102
RTVSPropertyOp32
 70
     1
  0
XRECORD
  5
329
102
{ACAD_REACTORS
330
328
102
}
330
328
100
AcDbXrecord
280
     1
102
RTVSPropertyOp0
 70
     1
102
RTVSPropertyOp1
 70
     1
102
RTVSPropertyOp2
 70
     1
102
RTVSPropertyOp3
 70
     1
102
RTVSPropertyOp4
 70
     1
102
RTVSPropertyOp5
 70
     1
102
RTVSPropertyOp6
 70
     1
102
RTVSPropertyOp7
 70
     1
102
RTVSPropertyOp8
 70
     1
102
RTVSPropertyOp9
 70
     1
102
RTVSPropertyOp10
 70
     1
102
RTVSPropertyOp11
 70
     1
102
RTVSPropertyOp12
 70
     1
102
RTVSPropertyOp13
 70
     1
102
RTVSPropertyOp14
 70
     1
102
RTVSPropertyOp15
 70
     1
102
RTVSPropertyOp16
 70
     1
102
RTVSPropertyOp17
 70
     1
102
RTVSPropertyOp18
 70
     1
102
RTVSPropertyOp19
 70
     1
102
RTVSPropertyOp20
 70
     1
102
RTVSPropertyOp21
 70
     1
102
RTVSPropertyOp22
 70
     1
102
RTVSPropertyOp23
 70
     1
102
RTVSPropertyOp24
 70
     1
102
RTVSPropertyOp25
 70
     1
102
RTVSPropertyOp26
 70
     1
102
RTVSPropertyOp27
 70
     1
102
RTVSPropertyOp28
 70
     1
102
RTVSPropertyOp29
 70
     1
102
RTVSPropertyOp30
 70
     1
102
RTVSPropertyOp31
 70
     1
102
RTVSPropertyOp32
 70
     1
  0
XRECORD
  5
32D
102
{ACAD_REACTORS
330
32C
102
}
330
32C
100
AcDbXrecord
280
     1
102
RTVSPropertyOp0
 70
     1
102
RTVSPropertyOp1
 70
     1
102
RTVSPropertyOp2
 70
     1
102
RTVSPropertyOp3
 70
     1
102
RTVSPropertyOp4
 70
     1
102
RTVSPropertyOp5
 70
     1
102
RTVSPropertyOp6
 70
     1
102
RTVSPropertyOp7
 70
     1
102
RTVSPropertyOp8
 70
     1
102
RTVSPropertyOp9
 70
     1
102
RTVSPropertyOp10
 70
     1
102
RTVSPropertyOp11
 70
     1
102
RTVSPropertyOp12
 70
     1
102
RTVSPropertyOp13
 70
     1
102
RTVSPropertyOp14
 70
     1
102
RTVSPropertyOp15
 70
     1
102
RTVSPropertyOp16
 70
     1
102
RTVSPropertyOp17
 70
     1
102
RTVSPropertyOp18
 70
     1
102
RTVSPropertyOp19
 70
     1
102
RTVSPropertyOp20
 70
     1
102
RTVSPropertyOp21
 70
     1
102
RTVSPropertyOp22
 70
     1
102
RTVSPropertyOp23
 70
     1
102
RTVSPropertyOp24
 70
     1
102
RTVSPropertyOp25
 70
     1
102
RTVSPropertyOp26
 70
     1
102
RTVSPropertyOp27
 70
     1
102
RTVSPropertyOp28
 70
     1
102
RTVSPropertyOp29
 70
     1
102
RTVSPropertyOp30
 70
     1
102
RTVSPropertyOp31
 70
     1
102
RTVSPropertyOp32
 70
     1
  0
XRECORD
  5
335
102
{ACAD_REACTORS
330
334
102
}
330
334
100
AcDbXrecord
280
     1
102
RTVSPropertyOp0
 70
     1
102
RTVSPropertyOp1
 70
     1
102
RTVSPropertyOp2
 70
     1
102
RTVSPropertyOp3
 70
     1
102
RTVSPropertyOp4
 70
     1
102
RTVSPropertyOp5
 70
     1
102
RTVSPropertyOp6
 70
     1
102
RTVSPropertyOp7
 70
     1
102
RTVSPropertyOp8
 70
     1
102
RTVSPropertyOp9
 70
     1
102
RTVSPropertyOp10
 70
     1
102
RTVSPropertyOp11
 70
     1
102
RTVSPropertyOp12
 70
     1
102
RTVSPropertyOp13
 70
     1
102
RTVSPropertyOp14
 70
     1
102
RTVSPropertyOp15
 70
     1
102
RTVSPropertyOp16
 70
     1
102
RTVSPropertyOp17
 70
     1
102
RTVSPropertyOp18
 70
     1
102
RTVSPropertyOp19
 70
     1
102
RTVSPropertyOp20
 70
     1
102
RTVSPropertyOp21
 70
     1
102
RTVSPropertyOp22
 70
     1
102
RTVSPropertyOp23
 70
     1
102
RTVSPropertyOp24
 70
     1
102
RTVSPropertyOp25
 70
     1
102
RTVSPropertyOp26
 70
     1
102
RTVSPropertyOp27
 70
     1
102
RTVSPropertyOp28
 70
     1
102
RTVSPropertyOp29
 70
     1
102
RTVSPropertyOp30
 70
     1
102
RTVSPropertyOp31
 70
     1
102
RTVSPropertyOp32
 70
     1
  0
XRECORD
  5
33D
102
{ACAD_REACTORS
330
33C
102
}
330
33C
100
AcDbXrecord
280
     1
102
RTVSPropertyOp0
 70
     1
102
RTVSPropertyOp1
 70
     1
102
RTVSPropertyOp2
 70
     1
102
RTVSPropertyOp3
 70
     1
102
RTVSPropertyOp4
 70
     1
102
RTVSPropertyOp5
 70
     1
102
RTVSPropertyOp6
 70
     1
102
RTVSPropertyOp7
 70
     1
102
RTVSPropertyOp8
 70
     1
102
RTVSPropertyOp9
 70
     1
102
RTVSPropertyOp10
 70
     1
102
RTVSPropertyOp11
 70
     1
102
RTVSPropertyOp12
 70
     1
102
RTVSPropertyOp13
 70
     1
102
RTVSPropertyOp14
 70
     1
102
RTVSPropertyOp15
 70
     1
102
RTVSPropertyOp16
 70
     1
102
RTVSPropertyOp17
 70
     1
102
RTVSPropertyOp18
 70
     1
102
RTVSPropertyOp19
 70
     1
102
RTVSPropertyOp20
 70
     1
102
RTVSPropertyOp21
 70
     1
102
RTVSPropertyOp22
 70
     1
102
RTVSPropertyOp23
 70
     1
102
RTVSPropertyOp24
 70
     1
102
RTVSPropertyOp25
 70
     1
102
RTVSPropertyOp26
 70
     1
102
RTVSPropertyOp27
 70
     1
102
RTVSPropertyOp28
 70
     1
102
RTVSPropertyOp29
 70
     1
102
RTVSPropertyOp30
 70
     1
102
RTVSPropertyOp31
 70
     1
102
RTVSPropertyOp32
 70
     1
  0
XRECORD
  5
331
102
{ACAD_REACTORS
330
330
102
}
330
330
100
AcDbXrecord
280
     1
102
RTVSPropertyOp0
 70
     1
102
RTVSPropertyOp1
 70
     1
102
RTVSPropertyOp2
 70
     1
102
RTVSPropertyOp3
 70
     1
102
RTVSPropertyOp4
 70
     1
102
RTVSPropertyOp5
 70
     1
102
RTVSPropertyOp6
 70
     1
102
RTVSPropertyOp7
 70
     1
102
RTVSPropertyOp8
 70
     1
102
RTVSPropertyOp9
 70
     1
102
RTVSPropertyOp10
 70
     1
102
RTVSPropertyOp11
 70
     1
102
RTVSPropertyOp12
 70
     1
102
RTVSPropertyOp13
 70
     1
102
RTVSPropertyOp14
 70
     1
102
RTVSPropertyOp15
 70
     1
102
RTVSPropertyOp16
 70
     1
102
RTVSPropertyOp17
 70
     1
102
RTVSPropertyOp18
 70
     1
102
RTVSPropertyOp19
 70
     1
102
RTVSPropertyOp20
 70
     1
102
RTVSPropertyOp21
 70
     1
102
RTVSPropertyOp22
 70
     1
102
RTVSPropertyOp23
 70
     1
102
RTVSPropertyOp24
 70
     1
102
RTVSPropertyOp25
 70
     1
102
RTVSPropertyOp26
 70
     1
102
RTVSPropertyOp27
 70
     1
102
RTVSPropertyOp28
 70
     1
102
RTVSPropertyOp29
 70
     1
102
RTVSPropertyOp30
 70
     1
102
RTVSPropertyOp31
 70
     1
102
RTVSPropertyOp32
 70
     1
  0
XRECORD
  5
333
102
{ACAD_REACTORS
330
332
102
}
330
332
100
AcDbXrecord
280
     1
102
RTVSPropertyOp0
 70
     1
102
RTVSPropertyOp1
 70
     1
102
RTVSPropertyOp2
 70
     1
102
RTVSPropertyOp3
 70
     1
102
RTVSPropertyOp4
 70
     1
102
RTVSPropertyOp5
 70
     1
102
RTVSPropertyOp6
 70
     1
102
RTVSPropertyOp7
 70
     1
102
RTVSPropertyOp8
 70
     1
102
RTVSPropertyOp9
 70
     1
102
RTVSPropertyOp10
 70
     1
102
RTVSPropertyOp11
 70
     1
102
RTVSPropertyOp12
 70
     1
102
RTVSPropertyOp13
 70
     1
102
RTVSPropertyOp14
 70
     1
102
RTVSPropertyOp15
 70
     1
102
RTVSPropertyOp16
 70
     1
102
RTVSPropertyOp17
 70
     1
102
RTVSPropertyOp18
 70
     1
102
RTVSPropertyOp19
 70
     1
102
RTVSPropertyOp20
 70
     1
102
RTVSPropertyOp21
 70
     1
102
RTVSPropertyOp22
 70
     1
102
RTVSPropertyOp23
 70
     1
102
RTVSPropertyOp24
 70
     1
102
RTVSPropertyOp25
 70
     1
102
RTVSPropertyOp26
 70
     1
102
RTVSPropertyOp27
 70
     1
102
RTVSPropertyOp28
 70
     1
102
RTVSPropertyOp29
 70
     1
102
RTVSPropertyOp30
 70
     1
102
RTVSPropertyOp31
 70
     1
102
RTVSPropertyOp32
 70
     1
  0
XRECORD
  5
33B
102
{ACAD_REACTORS
330
33A
102
}
330
33A
100
AcDbXrecord
280
     1
102
RTVSPropertyOp0
 70
     1
102
RTVSPropertyOp1
 70
     1
102
RTVSPropertyOp2
 70
     1
102
RTVSPropertyOp3
 70
     1
102
RTVSPropertyOp4
 70
     1
102
RTVSPropertyOp5
 70
     1
102
RTVSPropertyOp6
 70
     1
102
RTVSPropertyOp7
 70
     1
102
RTVSPropertyOp8
 70
     1
102
RTVSPropertyOp9
 70
     1
102
RTVSPropertyOp10
 70
     1
102
RTVSPropertyOp11
 70
     1
102
RTVSPropertyOp12
 70
     1
102
RTVSPropertyOp13
 70
     1
102
RTVSPropertyOp14
 70
     1
102
RTVSPropertyOp15
 70
     1
102
RTVSPropertyOp16
 70
     1
102
RTVSPropertyOp17
 70
     1
102
RTVSPropertyOp18
 70
     1
102
RTVSPropertyOp19
 70
     1
102
RTVSPropertyOp20
 70
     1
102
RTVSPropertyOp21
 70
     1
102
RTVSPropertyOp22
 70
     1
102
RTVSPropertyOp23
 70
     1
102
RTVSPropertyOp24
 70
     1
102
RTVSPropertyOp25
 70
     1
102
RTVSPropertyOp26
 70
     1
102
RTVSPropertyOp27
 70
     1
102
RTVSPropertyOp28
 70
     1
102
RTVSPropertyOp29
 70
     1
102
RTVSPropertyOp30
 70
     1
102
RTVSPropertyOp31
 70
     1
102
RTVSPropertyOp32
 70
     1
  0
XRECORD
  5
31F
102
{ACAD_REACTORS
330
31E
102
}
330
31E
100
AcDbXrecord
280
     1
102
RTVSPropertyOp0
 70
     1
102
RTVSPropertyOp1
 70
     1
102
RTVSPropertyOp2
 70
     1
102
RTVSPropertyOp3
 70
     1
102
RTVSPropertyOp4
 70
     1
102
RTVSPropertyOp5
 70
     1
102
RTVSPropertyOp6
 70
     1
102
RTVSPropertyOp7
 70
     1
102
RTVSPropertyOp8
 70
     1
102
RTVSPropertyOp9
 70
     1
102
RTVSPropertyOp10
 70
     1
102
RTVSPropertyOp11
 70
     1
102
RTVSPropertyOp12
 70
     1
102
RTVSPropertyOp13
 70
     1
102
RTVSPropertyOp14
 70
     1
102
RTVSPropertyOp15
 70
     1
102
RTVSPropertyOp16
 70
     1
102
RTVSPropertyOp17
 70
     1
102
RTVSPropertyOp18
 70
     1
102
RTVSPropertyOp19
 70
     1
102
RTVSPropertyOp20
 70
     1
102
RTVSPropertyOp21
 70
     1
102
RTVSPropertyOp22
 70
     1
102
RTVSPropertyOp23
 70
     1
102
RTVSPropertyOp24
 70
     1
102
RTVSPropertyOp25
 70
     1
102
RTVSPropertyOp26
 70
     1
102
RTVSPropertyOp27
 70
     1
102
RTVSPropertyOp28
 70
     1
102
RTVSPropertyOp29
 70
     1
102
RTVSPropertyOp30
 70
     1
102
RTVSPropertyOp31
 70
     1
102
RTVSPropertyOp32
 70
     1
  0
XRECORD
  5
321
102
{ACAD_REACTORS
330
320
102
}
330
320
100
AcDbXrecord
280
     1
102
RTVSPropertyOp0
 70
     1
102
RTVSPropertyOp1
 70
     1
102
RTVSPropertyOp2
 70
     1
102
RTVSPropertyOp3
 70
     1
102
RTVSPropertyOp4
 70
     1
102
RTVSPropertyOp5
 70
     1
102
RTVSPropertyOp6
 70
     1
102
RTVSPropertyOp7
 70
     1
102
RTVSPropertyOp8
 70
     1
102
RTVSPropertyOp9
 70
     1
102
RTVSPropertyOp10
 70
     1
102
RTVSPropertyOp11
 70
     1
102
RTVSPropertyOp12
 70
     1
102
RTVSPropertyOp13
 70
     1
102
RTVSPropertyOp14
 70
     1
102
RTVSPropertyOp15
 70
     1
102
RTVSPropertyOp16
 70
     1
102
RTVSPropertyOp17
 70
     1
102
RTVSPropertyOp18
 70
     1
102
RTVSPropertyOp19
 70
     1
102
RTVSPropertyOp20
 70
     1
102
RTVSPropertyOp21
 70
     1
102
RTVSPropertyOp22
 70
     1
102
RTVSPropertyOp23
 70
     1
102
RTVSPropertyOp24
 70
     1
102
RTVSPropertyOp25
 70
     1
102
RTVSPropertyOp26
 70
     1
102
RTVSPropertyOp27
 70
     1
102
RTVSPropertyOp28
 70
     1
102
RTVSPropertyOp29
 70
     1
102
RTVSPropertyOp30
 70
     1
102
RTVSPropertyOp31
 70
     1
102
RTVSPropertyOp32
 70
     1
  0
XRECORD
  5
323
102
{ACAD_REACTORS
330
322
102
}
330
322
100
AcDbXrecord
280
     1
102
RTVSPropertyOp0
 70
     1
102
RTVSPropertyOp1
 70
     1
102
RTVSPropertyOp2
 70
     1
102
RTVSPropertyOp3
 70
     1
102
RTVSPropertyOp4
 70
     1
102
RTVSPropertyOp5
 70
     1
102
RTVSPropertyOp6
 70
     1
102
RTVSPropertyOp7
 70
     1
102
RTVSPropertyOp8
 70
     1
102
RTVSPropertyOp9
 70
     1
102
RTVSPropertyOp10
 70
     1
102
RTVSPropertyOp11
 70
     1
102
RTVSPropertyOp12
 70
     1
102
RTVSPropertyOp13
 70
     1
102
RTVSPropertyOp14
 70
     1
102
RTVSPropertyOp15
 70
     1
102
RTVSPropertyOp16
 70
     1
102
RTVSPropertyOp17
 70
     1
102
RTVSPropertyOp18
 70
     1
102
RTVSPropertyOp19
 70
     1
102
RTVSPropertyOp20
 70
     1
102
RTVSPropertyOp21
 70
     1
102
RTVSPropertyOp22
 70
     1
102
RTVSPropertyOp23
 70
     1
102
RTVSPropertyOp24
 70
     1
102
RTVSPropertyOp25
 70
     1
102
RTVSPropertyOp26
 70
     1
102
RTVSPropertyOp27
 70
     1
102
RTVSPropertyOp28
 70
     1
102
RTVSPropertyOp29
 70
     1
102
RTVSPropertyOp30
 70
     1
102
RTVSPropertyOp31
 70
     1
102
RTVSPropertyOp32
 70
     1
  0
XRECORD
  5
325
102
{ACAD_REACTORS
330
324
102
}
330
324
100
AcDbXrecord
280
     1
102
RTVSPropertyOp0
 70
     1
102
RTVSPropertyOp1
 70
     1
102
RTVSPropertyOp2
 70
     1
102
RTVSPropertyOp3
 70
     1
102
RTVSPropertyOp4
 70
     1
102
RTVSPropertyOp5
 70
     1
102
RTVSPropertyOp6
 70
     1
102
RTVSPropertyOp7
 70
     1
102
RTVSPropertyOp8
 70
     1
102
RTVSPropertyOp9
 70
     1
102
RTVSPropertyOp10
 70
     1
102
RTVSPropertyOp11
 70
     1
102
RTVSPropertyOp12
 70
     1
102
RTVSPropertyOp13
 70
     1
102
RTVSPropertyOp14
 70
     1
102
RTVSPropertyOp15
 70
     1
102
RTVSPropertyOp16
 70
     1
102
RTVSPropertyOp17
 70
     1
102
RTVSPropertyOp18
 70
     1
102
RTVSPropertyOp19
 70
     1
102
RTVSPropertyOp20
 70
     1
102
RTVSPropertyOp21
 70
     1
102
RTVSPropertyOp22
 70
     1
102
RTVSPropertyOp23
 70
     1
102
RTVSPropertyOp24
 70
     1
102
RTVSPropertyOp25
 70
     1
102
RTVSPropertyOp26
 70
     1
102
RTVSPropertyOp27
 70
     1
102
RTVSPropertyOp28
 70
     1
102
RTVSPropertyOp29
 70
     1
102
RTVSPropertyOp30
 70
     1
102
RTVSPropertyOp31
 70
     1
102
RTVSPropertyOp32
 70
     1
  0
XRECORD
  5
339
102
{ACAD_REACTORS
330
338
102
}
330
338
100
AcDbXrecord
280
     1
102
RTVSPropertyOp0
 70
     1
102
RTVSPropertyOp1
 70
     1
102
RTVSPropertyOp2
 70
     1
102
RTVSPropertyOp3
 70
     1
102
RTVSPropertyOp4
 70
     1
102
RTVSPropertyOp5
 70
     1
102
RTVSPropertyOp6
 70
     1
102
RTVSPropertyOp7
 70
     1
102
RTVSPropertyOp8
 70
     1
102
RTVSPropertyOp9
 70
     1
102
RTVSPropertyOp10
 70
     1
102
RTVSPropertyOp11
 70
     1
102
RTVSPropertyOp12
 70
     1
102
RTVSPropertyOp13
 70
     1
102
RTVSPropertyOp14
 70
     1
102
RTVSPropertyOp15
 70
     1
102
RTVSPropertyOp16
 70
     1
102
RTVSPropertyOp17
 70
     1
102
RTVSPropertyOp18
 70
     1
102
RTVSPropertyOp19
 70
     1
102
RTVSPropertyOp20
 70
     1
102
RTVSPropertyOp21
 70
     1
102
RTVSPropertyOp22
 70
     1
102
RTVSPropertyOp23
 70
     1
102
RTVSPropertyOp24
 70
     1
102
RTVSPropertyOp25
 70
     1
102
RTVSPropertyOp26
 70
     1
102
RTVSPropertyOp27
 70
     1
102
RTVSPropertyOp28
 70
     1
102
RTVSPropertyOp29
 70
     1
102
RTVSPropertyOp30
 70
     1
102
RTVSPropertyOp31
 70
     1
102
RTVSPropertyOp32
 70
     1
  0
XRECORD
  5
32F
102
{ACAD_REACTORS
330
32E
102
}
330
32E
100
AcDbXrecord
280
     1
102
RTVSPropertyOp0
 70
     1
102
RTVSPropertyOp1
 70
     1
102
RTVSPropertyOp2
 70
     1
102
RTVSPropertyOp3
 70
     1
102
RTVSPropertyOp4
 70
     1
102
RTVSPropertyOp5
 70
     1
102
RTVSPropertyOp6
 70
     1
102
RTVSPropertyOp7
 70
     1
102
RTVSPropertyOp8
 70
     1
102
RTVSPropertyOp9
 70
     1
102
RTVSPropertyOp10
 70
     1
102
RTVSPropertyOp11
 70
     1
102
RTVSPropertyOp12
 70
     1
102
RTVSPropertyOp13
 70
     1
102
RTVSPropertyOp14
 70
     1
102
RTVSPropertyOp15
 70
     1
102
RTVSPropertyOp16
 70
     1
102
RTVSPropertyOp17
 70
     1
102
RTVSPropertyOp18
 70
     1
102
RTVSPropertyOp19
 70
     1
102
RTVSPropertyOp20
 70
     1
102
RTVSPropertyOp21
 70
     1
102
RTVSPropertyOp22
 70
     1
102
RTVSPropertyOp23
 70
     1
102
RTVSPropertyOp24
 70
     1
102
RTVSPropertyOp25
 70
     1
102
RTVSPropertyOp26
 70
     1
102
RTVSPropertyOp27
 70
     1
102
RTVSPropertyOp28
 70
     1
102
RTVSPropertyOp29
 70
     1
102
RTVSPropertyOp30
 70
     1
102
RTVSPropertyOp31
 70
     1
102
RTVSPropertyOp32
 70
     1
  0
XRECORD
  5
337
102
{ACAD_REACTORS
330
336
102
}
330
336
100
AcDbXrecord
280
     1
102
RTVSPropertyOp0
 70
     1
102
RTVSPropertyOp1
 70
     1
102
RTVSPropertyOp2
 70
     1
102
RTVSPropertyOp3
 70
     1
102
RTVSPropertyOp4
 70
     1
102
RTVSPropertyOp5
 70
     1
102
RTVSPropertyOp6
 70
     1
102
RTVSPropertyOp7
 70
     1
102
RTVSPropertyOp8
 70
     1
102
RTVSPropertyOp9
 70
     1
102
RTVSPropertyOp10
 70
     1
102
RTVSPropertyOp11
 70
     1
102
RTVSPropertyOp12
 70
     1
102
RTVSPropertyOp13
 70
     1
102
RTVSPropertyOp14
 70
     1
102
RTVSPropertyOp15
 70
     1
102
RTVSPropertyOp16
 70
     1
102
RTVSPropertyOp17
 70
     1
102
RTVSPropertyOp18
 70
     1
102
RTVSPropertyOp19
 70
     1
102
RTVSPropertyOp20
 70
     1
102
RTVSPropertyOp21
 70
     1
102
RTVSPropertyOp22
 70
     1
102
RTVSPropertyOp23
 70
     1
102
RTVSPropertyOp24
 70
     1
102
RTVSPropertyOp25
 70
     1
102
RTVSPropertyOp26
 70
     1
102
RTVSPropertyOp27
 70
     1
102
RTVSPropertyOp28
 70
     1
102
RTVSPropertyOp29
 70
     1
102
RTVSPropertyOp30
 70
     1
102
RTVSPropertyOp31
 70
     1
102
RTVSPropertyOp32
 70
     1
  0
ENDSEC
  0
EOF
