  0
SECTION
  2
HEADER
  9
$ACADVER
  1
AC1015
  9
$ACADMAINTVER
 70
     6
  9
$DWGCODEPAGE
  3
ANSI_1252
  9
$INSBASE
 10
0.0
 20
0.0
 30
0.0
  9
$EXTMIN
 10
1.000000000000000E+20
 20
1.000000000000000E+20
 30
1.000000000000000E+20
  9
$EXTMAX
 10
-1.000000000000000E+20
 20
-1.000000000000000E+20
 30
-1.000000000000000E+20
  9
$LIMMIN
 10
0.0
 20
0.0
  9
$LIMMAX
 10
12.0
 20
9.0
  9
$ORTHOMODE
 70
     0
  9
$REGENMODE
 70
     1
  9
$FILLMODE
 70
     1
  9
$QTEXTMODE
 70
     0
  9
$MIRRTEXT
 70
     1
  9
$LTSCALE
 40
1.0
  9
$ATTMODE
 70
     1
  9
$TEXTSIZE
 40
0.2
  9
$TRACEWID
 40
0.05
  9
$TEXTSTYLE
  7
Standard
  9
$CLAYER
  8
0
  9
$CELTYPE
  6
ByLayer
  9
$CECOLOR
 62
   256
  9
$CELTSCALE
 40
1.0
  9
$DISPSILH
 70
     0
  9
$DIMSCALE
 40
1.0
  9
$DIMASZ
 40
0.18
  9
$DIMEXO
 40
0.0625
  9
$DIMDLI
 40
0.38
  9
$DIMRND
 40
0.0
  9
$DIMDLE
 40
0.0
  9
$DIMEXE
 40
0.18
  9
$DIMTP
 40
0.0
  9
$DIMTM
 40
0.0
  9
$DIMTXT
 40
0.18
  9
$DIMCEN
 40
0.09
  9
$DIMTSZ
 40
0.0
  9
$DIMTOL
 70
     0
  9
$DIMLIM
 70
     0
  9
$DIMTIH
 70
     1
  9
$DIMTOH
 70
     1
  9
$DIMSE1
 70
     0
  9
$DIMSE2
 70
     0
  9
$DIMTAD
 70
     0
  9
$DIMZIN
 70
     0
  9
$DIMBLK
  1

  9
$DIMASO
 70
     1
  9
$DIMSHO
 70
     1
  9
$DIMPOST
  1

  9
$DIMAPOST
  1

  9
$DIMALT
 70
     0
  9
$DIMALTD
 70
     2
  9
$DIMALTF
 40
25.4
  9
$DIMLFAC
 40
1.0
  9
$DIMTOFL
 70
     0
  9
$DIMTVP
 40
0.0
  9
$DIMTIX
 70
     0
  9
$DIMSOXD
 70
     0
  9
$DIMSAH
 70
     0
  9
$DIMBLK1
  1

  9
$DIMBLK2
  1

  9
$DIMSTYLE
  2
Standard
  9
$DIMCLRD
 70
     0
  9
$DIMCLRE
 70
     0
  9
$DIMCLRT
 70
     0
  9
$DIMTFAC
 40
1.0
  9
$DIMGAP
 40
0.09
  9
$DIMJUST
 70
     0
  9
$DIMSD1
 70
     0
  9
$DIMSD2
 70
     0
  9
$DIMTOLJ
 70
     1
  9
$DIMTZIN
 70
     0
  9
$DIMALTZ
 70
     0
  9
$DIMALTTZ
 70
     0
  9
$DIMUPT
 70
     0
  9
$DIMDEC
 70
     4
  9
$DIMTDEC
 70
     4
  9
$DIMALTU
 70
     2
  9
$DIMALTTD
 70
     2
  9
$DIMTXSTY
  7
Standard
  9
$DIMAUNIT
 70
     0
  9
$DIMADEC
 70
     0
  9
$DIMALTRND
 40
0.0
  9
$DIMAZIN
 70
     0
  9
$DIMDSEP
 70
    46
  9
$DIMATFIT
 70
     3
  9
$DIMFRAC
 70
     0
  9
$DIMLDRBLK
  1

  9
$DIMLUNIT
 70
     2
  9
$DIMLWD
 70
    -2
  9
$DIMLWE
 70
    -2
  9
$DIMTMOVE
 70
     0
  9
$LUNITS
 70
     2
  9
$LUPREC
 70
     4
  9
$SKETCHINC
 40
0.1
  9
$FILLETRAD
 40
0.5
  9
$AUNITS
 70
     0
  9
$AUPREC
 70
     0
  9
$MENU
  1
.
  9
$ELEVATION
 40
0.0
  9
$PELEVATION
 40
0.0
  9
$THICKNESS
 40
0.0
  9
$LIMCHECK
 70
     0
  9
$CHAMFERA
 40
0.5
  9
$CHAMFERB
 40
0.5
  9
$CHAMFERC
 40
1.0
  9
$CHAMFERD
 40
0.0
  9
$SKPOLY
 70
     0
  9
$TDCREATE
 40
2458926.599599757
  9
$TDUCREATE
 40
2458926.05793309
  9
$TDUPDATE
 40
2458926.599599884
  9
$TDUUPDATE
 40
2458926.057933217
  9
$TDINDWG
 40
0.0000000116
  9
$TDUSRTIMER
 40
0.0000000116
  9
$USRTIMER
 70
     1
  9
$ANGBASE
 50
0.0
  9
$ANGDIR
 70
     0
  9
$PDMODE
 70
     0
  9
$PDSIZE
 40
0.0
  9
$PLINEWID
 40
0.0
  9
$SPLFRAME
 70
     0
  9
$SPLINETYPE
 70
     6
  9
$SPLINESEGS
 70
     8
  9
$HANDSEED
  5
33A
  9
$SURFTAB1
 70
     6
  9
$SURFTAB2
 70
     6
  9
$SURFTYPE
 70
     6
  9
$SURFU
 70
     6
  9
$SURFV
 70
     6
  9
$UCSBASE
  2

  9
$UCSNAME
  2

  9
$UCSORG
 10
0.0
 20
0.0
 30
0.0
  9
$UCSXDIR
 10
1.0
 20
0.0
 30
0.0
  9
$UCSYDIR
 10
0.0
 20
1.0
 30
0.0
  9
$UCSORTHOREF
  2

  9
$UCSORTHOVIEW
 70
     0
  9
$UCSORGTOP
 10
0.0
 20
0.0
 30
0.0
  9
$UCSORGBOTTOM
 10
0.0
 20
0.0
 30
0.0
  9
$UCSORGLEFT
 10
0.0
 20
0.0
 30
0.0
  9
$UCSORGRIGHT
 10
0.0
 20
0.0
 30
0.0
  9
$UCSORGFRONT
 10
0.0
 20
0.0
 30
0.0
  9
$UCSORGBACK
 10
0.0
 20
0.0
 30
0.0
  9
$PUCSBASE
  2

  9
$PUCSNAME
  2

  9
$PUCSORG
 10
0.0
 20
0.0
 30
0.0
  9
$PUCSXDIR
 10
1.0
 20
0.0
 30
0.0
  9
$PUCSYDIR
 10
0.0
 20
1.0
 30
0.0
  9
$PUCSORTHOREF
  2

  9
$PUCSORTHOVIEW
 70
     0
  9
$PUCSORGTOP
 10
0.0
 20
0.0
 30
0.0
  9
$PUCSORGBOTTOM
 10
0.0
 20
0.0
 30
0.0
  9
$PUCSORGLEFT
 10
0.0
 20
0.0
 30
0.0
  9
$PUCSORGRIGHT
 10
0.0
 20
0.0
 30
0.0
  9
$PUCSORGFRONT
 10
0.0
 20
0.0
 30
0.0
  9
$PUCSORGBACK
 10
0.0
 20
0.0
 30
0.0
  9
$USERI1
 70
     0
  9
$USERI2
 70
     0
  9
$USERI3
 70
     0
  9
$USERI4
 70
     0
  9
$USERI5
 70
     0
  9
$USERR1
 40
0.0
  9
$USERR2
 40
0.0
  9
$USERR3
 40
0.0
  9
$USERR4
 40
0.0
  9
$USERR5
 40
0.0
  9
$WORLDVIEW
 70
     1
  9
$SHADEDGE
 70
     3
  9
$SHADEDIF
 70
    70
  9
$TILEMODE
 70
     1
  9
$MAXACTVP
 70
    64
  9
$PINSBASE
 10
0.0
 20
0.0
 30
0.0
  9
$PLIMCHECK
 70
     0
  9
$PEXTMIN
 10
1.000000000000000E+20
 20
1.000000000000000E+20
 30
1.000000000000000E+20
  9
$PEXTMAX
 10
-1.000000000000000E+20
 20
-1.000000000000000E+20
 30
-1.000000000000000E+20
  9
$PLIMMIN
 10
0.0
 20
0.0
  9
$PLIMMAX
 10
12.0
 20
9.0
  9
$UNITMODE
 70
     0
  9
$VISRETAIN
 70
     1
  9
$PLINEGEN
 70
     0
  9
$PSLTSCALE
 70
     1
  9
$TREEDEPTH
 70
  3020
  9
$CMLSTYLE
  2
Standard
  9
$CMLJUST
 70
     0
  9
$CMLSCALE
 40
1.0
  9
$PROXYGRAPHICS
 70
     1
  9
$MEASUREMENT
 70
     0
  9
$CELWEIGHT
370
    -1
  9
$ENDCAPS
280
     0
  9
$JOINSTYLE
280
     0
  9
$LWDISPLAY
290
     1
  9
$INSUNITS
 70
     4
  9
$HYPERLINKBASE
  1

  9
$STYLESHEET
  1

  9
$XEDIT
290
     1
  9
$CEPSNTYPE
380
     0
  9
$PSTYLEMODE
290
     1
  9
$FINGERPRINTGUID
  2
{AF1C277B-E106-4521-B54F-45C2AA7E3358}
  9
$VERSIONGUID
  2
{FAEB1C32-E019-11D5-929B-00C0DF256EC4}
  9
$EXTNAMES
290
     1
  9
$PSVPSCALE
 40
0.0
  9
$OLESTARTUP
290
     0
  0
ENDSEC
  0
SECTION
  2
CLASSES
  0
CLASS
  1
ACDBDICTIONARYWDFLT
  2
AcDbDictionaryWithDefault
  3
ObjectDBX Classes
 90
        0
280
     0
281
     0
  0
CLASS
  1
VISUALSTYLE
  2
AcDbVisualStyle
  3
ObjectDBX Classes
 90
     4095
280
     0
281
     0
  0
CLASS
  1
MATERIAL
  2
AcDbMaterial
  3
ObjectDBX Classes
 90
     1153
280
     0
281
     0
  0
CLASS
  1
SUN
  2
AcDbSun
  3
SCENEOE
 90
     1024
280
     0
281
     0
  0
CLASS
  1
DICTIONARYVAR
  2
AcDbDictionaryVar
  3
ObjectDBX Classes
 90
        0
280
     0
281
     0
  0
CLASS
  1
ACDBPLACEHOLDER
  2
AcDbPlaceHolder
  3
ObjectDBX Classes
 90
        0
280
     0
281
     0
  0
CLASS
  1
LAYOUT
  2
AcDbLayout
  3
ObjectDBX Classes
 90
        0
280
     0
281
     0
  0
ENDSEC
  0
SECTION
  2
TABLES
  0
TABLE
  2
VPORT
  5
8
330
0
100
AcDbSymbolTable
 70
     1
  0
VPORT
  5
29
330
8
100
AcDbSymbolTableRecord
100
AcDbViewportTableRecord
  2
*Active
 70
     0
 10
0.0
 20
0.0
 11
1.0
 21
1.0
 12
0.0
 22
0.0
 13
0.0
 23
0.0
 14
0.5
 24
0.5
 15
0.5
 25
0.5
 16
0.0
 26
0.0
 36
1.0
 17
594.4993281255732
 27
420.5005173373662
 37
0.0
 40
841.0010346747324
 41
1.413789766276573
 42
50.0
 43
0.0
 44
0.0
 50
0.0
 51
0.0
 71
     0
 72
   100
 73
     1
 74
     3
 75
     0
 76
     0
 77
     0
 78
     0
281
     0
 65
     1
110
0.0
120
0.0
130
0.0
111
1.0
121
0.0
131
0.0
112
0.0
122
1.0
132
0.0
 79
     0
146
0.0
  0
ENDTAB
  0
TABLE
  2
LTYPE
  5
5
330
0
100
AcDbSymbolTable
 70
     1
  0
LTYPE
  5
14
330
5
100
AcDbSymbolTableRecord
100
AcDbLinetypeTableRecord
  2
ByBlock
 70
     0
  3

 72
    65
 73
     0
 40
0.0
  0
LTYPE
  5
15
330
5
100
AcDbSymbolTableRecord
100
AcDbLinetypeTableRecord
  2
ByLayer
 70
     0
  3

 72
    65
 73
     0
 40
0.0
  0
LTYPE
  5
16
330
5
100
AcDbSymbolTableRecord
100
AcDbLinetypeTableRecord
  2
Continuous
 70
     0
  3
Solid line
 72
    65
 73
     0
 40
0.0
  0
ENDTAB
  0
TABLE
  2
LAYER
  5
2
330
0
100
AcDbSymbolTable
 70
     2
  0
LAYER
  5
10
330
2
100
AcDbSymbolTableRecord
100
AcDbLayerTableRecord
  2
0
 70
     0
 62
     7
  6
Continuous
370
    -3
390
F
  0
LAYER
  5
40
330
2
100
AcDbSymbolTableRecord
100
AcDbLayerTableRecord
  2
Layer 1
 70
     0
 62
     7
  6
Continuous
370
    -3
390
F
  0
ENDTAB
  0
TABLE
  2
STYLE
  5
3
330
0
100
AcDbSymbolTable
 70
     1
  0
STYLE
  5
11
330
3
100
AcDbSymbolTableRecord
100
AcDbTextStyleTableRecord
  2
Standard
 70
     0
 40
0.0
 41
1.0
 50
0.0
 71
     0
 42
0.2
  3
txt
  4

  0
ENDTAB
  0
TABLE
  2
VIEW
  5
6
330
0
100
AcDbSymbolTable
 70
     0
  0
ENDTAB
  0
TABLE
  2
UCS
  5
7
330
0
100
AcDbSymbolTable
 70
     0
  0
ENDTAB
  0
TABLE
  2
APPID
  5
9
330
0
100
AcDbSymbolTable
 70
     1
  0
APPID
  5
12
330
9
100
AcDbSymbolTableRecord
100
AcDbRegAppTableRecord
  2
ACAD
 70
     0
  0
ENDTAB
  0
TABLE
  2
DIMSTYLE
  5
A
330
0
100
AcDbSymbolTable
 70
     1
100
AcDbDimStyleTable
  0
DIMSTYLE
105
27
330
A
100
AcDbSymbolTableRecord
100
AcDbDimStyleTableRecord
  2
Standard
 70
     0
178
     0
340
11
  0
ENDTAB
  0
TABLE
  2
BLOCK_RECORD
  5
1
330
0
100
AcDbSymbolTable
 70
     9
  0
BLOCK_RECORD
  5
1F
330
1
100
AcDbSymbolTableRecord
100
AcDbBlockTableRecord
  2
*Model_Space
340
22
  0
BLOCK_RECORD
  5
1B
330
1
100
AcDbSymbolTableRecord
100
AcDbBlockTableRecord
  2
*Paper_Space
340
1E
  0
BLOCK_RECORD
  5
23
330
1
100
AcDbSymbolTableRecord
100
AcDbBlockTableRecord
  2
*Paper_Space0
340
26
  0
BLOCK_RECORD
  5
41
330
1
100
AcDbSymbolTableRecord
100
AcDbBlockTableRecord
  2
block 2
340
0
102
{BLKREFS
331
42
102
}
  0
BLOCK_RECORD
  5
83
330
1
100
AcDbSymbolTableRecord
100
AcDbBlockTableRecord
  2
block 3
340
0
102
{BLKREFS
331
84
102
}
  0
BLOCK_RECORD
  5
C2
330
1
100
AcDbSymbolTableRecord
100
AcDbBlockTableRecord
  2
block 4
340
0
102
{BLKREFS
331
C3
102
}
  0
BLOCK_RECORD
  5
EB
330
1
100
AcDbSymbolTableRecord
100
AcDbBlockTableRecord
  2
block 5
340
0
102
{BLKREFS
331
EC
102
}
  0
BLOCK_RECORD
  5
F6
330
1
100
AcDbSymbolTableRecord
100
AcDbBlockTableRecord
  2
block 6
340
0
102
{BLKREFS
331
F7
102
}
  0
BLOCK_RECORD
  5
1A7
330
1
100
AcDbSymbolTableRecord
100
AcDbBlockTableRecord
  2
block 7
340
0
102
{BLKREFS
331
1A8
102
}
  0
BLOCK_RECORD
  5
29F
330
1
100
AcDbSymbolTableRecord
100
AcDbBlockTableRecord
  2
block 8
340
0
102
{BLKREFS
331
2A0
102
}
  0
BLOCK_RECORD
  5
2B1
330
1
100
AcDbSymbolTableRecord
100
AcDbBlockTableRecord
  2
block 9
340
0
102
{BLKREFS
331
2B2
102
}
  0
ENDTAB
  0
ENDSEC
  0
SECTION
  2
BLOCKS
  0
BLOCK
  5
20
330
1F
100
AcDbEntity
  8
0
100
AcDbBlockBegin
  2
*Model_Space
 70
     0
 10
0.0
 20
0.0
 30
0.0
  3
*Model_Space
  1

  0
ENDBLK
  5
21
330
1F
100
AcDbEntity
  8
0
100
AcDbBlockEnd
  0
BLOCK
  5
1C
330
1B
100
AcDbEntity
 67
     1
  8
0
100
AcDbBlockBegin
  2
*Paper_Space
 70
     0
 10
0.0
 20
0.0
 30
0.0
  3
*Paper_Space
  1

  0
ENDBLK
  5
1D
330
1B
100
AcDbEntity
 67
     1
  8
0
100
AcDbBlockEnd
  0
BLOCK
  5
24
330
23
100
AcDbEntity
  8
0
100
AcDbBlockBegin
  2
*Paper_Space0
 70
     0
 10
0.0
 20
0.0
 30
0.0
  3
*Paper_Space0
  1

  0
ENDBLK
  5
25
330
23
100
AcDbEntity
  8
0
100
AcDbBlockEnd
  0
BLOCK
  5
43
330
41
100
AcDbEntity
  8
0
100
AcDbBlockBegin
  2
block 2
 70
     0
 10
0.0
 20
0.0
 30
0.0
  3
block 2
  1

  0
SPLINE
  5
45
330
41
100
AcDbEntity
  8
Layer 1
 62
    40
370
    13
100
AcDbSpline
210
0.0
220
0.0
230
1.0
 70
    11
 71
     3
 72
    50
 73
    46
 74
     0
 42
0.0000000001
 43
0.0000000001
 12
1.0
 22
0.0
 32
0.0
 13
1.0
 23
0.0
 33
0.0
 40
0.0
 40
0.0
 40
0.0
 40
0.0
 40
1.0
 40
1.0
 40
1.0
 40
2.0
 40
2.0
 40
2.0
 40
3.0
 40
3.0
 40
3.0
 40
4.0
 40
4.0
 40
4.0
 40
5.0
 40
5.0
 40
5.0
 40
6.0
 40
6.0
 40
6.0
 40
7.0
 40
7.0
 40
7.0
 40
8.0
 40
8.0
 40
8.0
 40
9.0
 40
9.0
 40
9.0
 40
10.0
 40
10.0
 40
10.0
 40
11.0
 40
11.0
 40
11.0
 40
12.0
 40
12.0
 40
12.0
 40
13.0
 40
13.0
 40
13.0
 40
14.0
 40
14.0
 40
14.0
 40
15.0
 40
15.0
 40
15.0
 40
15.0
 10
98.9227444506571
 20
803.5149387175433
 30
0.0
 10
98.9227444506571
 20
806.6510229818603
 30
0.0
 10
97.83707422476817
 20
809.3239158949663
 30
0.0
 10
95.66865531448285
 20
811.5326012685281
 30
0.0
 10
93.4993472393908
 20
813.7403974772831
 30
0.0
 10
90.86767346613253
 20
814.8481062879615
 30
0.0
 10
87.78138243085935
 20
814.8481062879615
 30
0.0
 10
84.70474518488646
 20
814.8481062879615
 30
0.0
 10
82.0808198477792
 20
813.7403974772831
 30
0.0
 10
79.91233742572255
 20
811.5316485919456
 30
0.0
 10
77.74302935063501
 20
809.3201051886671
 30
0.0
 10
76.65926447789538
 20
806.6453069223992
 30
0.0
 10
76.65926447789538
 20
803.5082064697384
 30
0.0
 10
76.65926447789538
 20
800.3692641757125
 30
0.0
 10
77.74201316228536
 20
797.7011346454741
 30
0.0
 10
79.91233742572255
 20
795.5029922260302
 30
0.0
 10
82.07891449462734
 20
793.3038971299967
 30
0.0
 10
84.70188715515853
 20
792.206731273419
 30
0.0
 10
87.77661904798116
 20
792.206731273419
 30
0.0
 10
90.26151711677976
 20
792.206731273419
 30
0.0
 10
92.45680150650243
 20
792.8819249186445
 30
0.0
 10
94.35669264592777
 20
794.2265326378731
 30
0.0
 10
96.25366224385385
 20
795.5720295218911
 30
0.0
 10
97.54650786911682
 20
797.3817974572357
 30
0.0
 10
98.23510249817501
 20
799.6480244959823
 30
0.0
 10
98.23510249817501
 20
799.6480244959823
 30
0.0
 10
92.85578245649016
 20
799.6480244959823
 30
0.0
 10
92.85578245649016
 20
799.6480244959823
 30
0.0
 10
92.42898335048483
 20
798.8146230273886
 30
0.0
 10
91.77011223059898
 20
798.1452089533964
 30
0.0
 10
90.87338952558842
 20
797.646514521792
 30
0.0
 10
89.9766668205846
 20
797.1458512252751
 30
0.0
 10
88.98982091149406
 20
796.8984093626349
 30
0.0
 10
87.9099302568301
 20
796.8984093626349
 30
0.0
 10
86.16926312912425
 20
796.8984093626349
 30
0.0
 10
84.71433546241578
 20
797.5275569733519
 30
0.0
 10
83.54717963339785
 20
798.791568254254
 30
0.0
 10
82.87103331160108
 20
799.5300831358828
 30
0.0
 10
82.38675605218064
 20
800.3596738981703
 30
0.0
 10
82.09809504969044
 20
801.2765298348133
 30
0.0
 10
82.09809504969044
 20
801.2765298348133
 30
0.0
 10
98.73570228292385
 20
801.2765298348133
 30
0.0
 10
98.73570228292385
 20
801.2765298348133
 30
0.0
 10
98.8603758908215
 20
802.0082489568724
 30
0.0
 10
98.9227444506571
 20
802.7563541160437
 30
0.0
 10
98.9227444506571
 20
803.5149387175433
 30
0.0
  0
SPLINE
  5
46
330
41
100
AcDbEntity
  8
Layer 1
 62
    40
370
    13
100
AcDbSpline
210
0.0
220
0.0
230
1.0
 70
    11
 71
     3
 72
    20
 73
    16
 74
     0
 42
0.0000000001
 43
0.0000000001
 12
1.0
 22
0.0
 32
0.0
 13
1.0
 23
0.0
 33
0.0
 40
0.0
 40
0.0
 40
0.0
 40
0.0
 40
1.0
 40
1.0
 40
1.0
 40
2.0
 40
2.0
 40
2.0
 40
3.0
 40
3.0
 40
3.0
 40
4.0
 40
4.0
 40
4.0
 40
5.0
 40
5.0
 40
5.0
 40
5.0
 10
81.94941399207828
 20
805.340012989881
 30
0.0
 10
82.23616964142111
 20
806.4381315230274
 30
0.0
 10
82.7521392749223
 20
807.4077657419739
 30
0.0
 10
83.49446486286287
 20
808.2488521349511
 30
0.0
 10
84.64917238462579
 20
809.5205483402342
 30
0.0
 10
86.0791399250459
 20
810.155412010412
 30
0.0
 10
87.78811467866457
 20
810.155412010412
 30
0.0
 10
89.4942949143205
 20
810.155412010412
 30
0.0
 10
90.92616780789504
 20
809.5205483402342
 30
0.0
 10
92.0808753296493
 20
808.2488521349511
 30
0.0
 10
92.84905020868237
 20
807.4202140492395
 30
0.0
 10
93.35739842958223
 20
806.4515325068688
 30
0.0
 10
93.60769832195972
 20
805.340012989881
 30
0.0
 10
93.60769832195972
 20
805.340012989881
 30
0.0
 10
81.94941399207828
 20
805.340012989881
 30
0.0
 10
81.94941399207828
 20
805.340012989881
 30
0.0
  0
POLYLINE
  5
47
330
41
100
AcDbEntity
  8
Layer 1
 62
    40
370
    13
100
AcDb2dPolyline
 66
     1
 10
0.0
 20
0.0
 30
0.0
  0
VERTEX
  5
48
330
47
100
AcDbEntity
  8
Layer 1
 62
    40
370
    13
100
AcDbVertex
100
AcDb2dVertex
 10
120.5551975337298
 20
814.1594576340824
 30
0.0
  0
VERTEX
  5
49
330
47
100
AcDbEntity
  8
Layer 1
 62
    40
370
    13
100
AcDbVertex
100
AcDb2dVertex
 10
114.6099872395155
 20
814.1594576340824
 30
0.0
  0
VERTEX
  5
4A
330
47
100
AcDbEntity
  8
Layer 1
 62
    40
370
    13
100
AcDbVertex
100
AcDb2dVertex
 10
107.7633223248048
 20
804.0145883096317
 30
0.0
  0
VERTEX
  5
4B
330
47
100
AcDbEntity
  8
Layer 1
 62
    40
370
    13
100
AcDbVertex
100
AcDb2dVertex
 10
107.7565906831558
 20
804.0145883096317
 30
0.0
  0
VERTEX
  5
4C
330
47
100
AcDbEntity
  8
Layer 1
 62
    40
370
    13
100
AcDbVertex
100
AcDb2dVertex
 10
107.7565906831558
 20
821.2871539535381
 30
0.0
  0
VERTEX
  5
4D
330
47
100
AcDbEntity
  8
Layer 1
 62
    40
370
    13
100
AcDbVertex
100
AcDb2dVertex
 10
102.6275480365828
 20
821.2871539535381
 30
0.0
  0
VERTEX
  5
4E
330
47
100
AcDbEntity
  8
Layer 1
 62
    40
370
    13
100
AcDbVertex
100
AcDb2dVertex
 10
102.6275480365828
 20
792.893396802363
 30
0.0
  0
VERTEX
  5
4F
330
47
100
AcDbEntity
  8
Layer 1
 62
    40
370
    13
100
AcDbVertex
100
AcDb2dVertex
 10
107.7565906831558
 20
792.893396802363
 30
0.0
  0
VERTEX
  5
50
330
47
100
AcDbEntity
  8
Layer 1
 62
    40
370
    13
100
AcDbVertex
100
AcDb2dVertex
 10
107.7565906831558
 20
802.9941555815229
 30
0.0
  0
VERTEX
  5
51
330
47
100
AcDbEntity
  8
Layer 1
 62
    40
370
    13
100
AcDbVertex
100
AcDb2dVertex
 10
115.3474824839075
 20
792.893396802363
 30
0.0
  0
VERTEX
  5
52
330
47
100
AcDbEntity
  8
Layer 1
 62
    40
370
    13
100
AcDbVertex
100
AcDb2dVertex
 10
121.4902518264425
 20
792.893396802363
 30
0.0
  0
VERTEX
  5
53
330
47
100
AcDbEntity
  8
Layer 1
 62
    40
370
    13
100
AcDbVertex
100
AcDb2dVertex
 10
112.6218700492173
 20
803.8812798540249
 30
0.0
  0
VERTEX
  5
54
330
47
100
AcDbEntity
  8
Layer 1
 62
    40
370
    13
100
AcDbVertex
100
AcDb2dVertex
 10
120.5551975337298
 20
814.1594576340824
 30
0.0
  0
SEQEND
  5
55
330
47
100
AcDbEntity
  8
Layer 1
 62
    40
370
    13
  0
SPLINE
  5
56
330
41
100
AcDbEntity
  8
Layer 1
 62
    40
370
    13
100
AcDbSpline
210
0.0
220
0.0
230
1.0
 70
    11
 71
     3
 72
    17
 73
    13
 74
     0
 42
0.0000000001
 43
0.0000000001
 12
1.0
 22
0.0
 32
0.0
 13
1.0
 23
0.0
 33
0.0
 40
0.0
 40
0.0
 40
0.0
 40
0.0
 40
1.0
 40
1.0
 40
1.0
 40
2.0
 40
2.0
 40
2.0
 40
3.0
 40
3.0
 40
3.0
 40
4.0
 40
4.0
 40
4.0
 40
4.0
 10
124.2648305343213
 20
821.7033763927963
 30
0.0
 10
123.0573447302604
 20
821.7033763927963
 30
0.0
 10
122.0494129129569
 20
820.7500646991798
 30
0.0
 10
122.0494129129569
 20
819.487006094864
 30
0.0
 10
122.0494129129569
 20
818.2229948139623
 30
0.0
 10
123.0573447302604
 20
817.2696831203458
 30
0.0
 10
124.2648305343213
 20
817.2696831203458
 30
0.0
 10
125.4674259319614
 20
817.2696831203458
 30
0.0
 10
126.4831061854069
 20
818.2229948139623
 30
0.0
 10
126.4831061854069
 20
819.487006094864
 30
0.0
 10
126.4831061854069
 20
820.7500646991798
 30
0.0
 10
125.4674259319614
 20
821.7033763927963
 30
0.0
 10
124.2648305343213
 20
821.7033763927963
 30
0.0
  0
SPLINE
  5
57
330
41
100
AcDbEntity
  8
Layer 1
 62
    40
370
    13
100
AcDbSpline
210
0.0
220
0.0
230
1.0
 70
    11
 71
     3
 72
    17
 73
    13
 74
     0
 42
0.0000000001
 43
0.0000000001
 12
1.0
 22
0.0
 32
0.0
 13
1.0
 23
0.0
 33
0.0
 40
0.0
 40
0.0
 40
0.0
 40
0.0
 40
1.0
 40
1.0
 40
1.0
 40
2.0
 40
2.0
 40
2.0
 40
3.0
 40
3.0
 40
3.0
 40
4.0
 40
4.0
 40
4.0
 40
4.0
 10
124.2648305343213
 20
817.5928945266659
 30
0.0
 10
123.2471814159481
 20
817.5928945266659
 30
0.0
 10
122.4425507799435
 20
818.413847687997
 30
0.0
 10
122.4425507799435
 20
819.487006094864
 30
0.0
 10
122.4425507799435
 20
820.5582591485693
 30
0.0
 10
123.2471814159481
 20
821.3821338514099
 30
0.0
 10
124.2648305343213
 20
821.3821338514099
 30
0.0
 10
125.2794945994214
 20
821.3821338514099
 30
0.0
 10
126.0899048066512
 20
820.5582591485693
 30
0.0
 10
126.0899048066512
 20
819.487006094864
 30
0.0
 10
126.0899048066512
 20
818.413847687997
 30
0.0
 10
125.2794945994214
 20
817.5928945266659
 30
0.0
 10
124.2648305343213
 20
817.5928945266659
 30
0.0
  0
SPLINE
  5
58
330
41
100
AcDbEntity
  8
Layer 1
 62
    40
370
    13
100
AcDbSpline
210
0.0
220
0.0
230
1.0
 70
    11
 71
     3
 72
    35
 73
    31
 74
     0
 42
0.0000000001
 43
0.0000000001
 12
1.0
 22
0.0
 32
0.0
 13
1.0
 23
0.0
 33
0.0
 40
0.0
 40
0.0
 40
0.0
 40
0.0
 40
1.0
 40
1.0
 40
1.0
 40
2.0
 40
2.0
 40
2.0
 40
3.0
 40
3.0
 40
3.0
 40
4.0
 40
4.0
 40
4.0
 40
5.0
 40
5.0
 40
5.0
 40
6.0
 40
6.0
 40
6.0
 40
7.0
 40
7.0
 40
7.0
 40
8.0
 40
8.0
 40
8.0
 40
9.0
 40
9.0
 40
9.0
 40
10.0
 40
10.0
 40
10.0
 40
10.0
 10
124.6177019380321
 20
819.337435872449
 30
0.0
 10
125.0042345807581
 20
819.377702335721
 30
0.0
 10
125.3043912139404
 20
819.5742712692129
 30
0.0
 10
125.3043912139404
 20
820.0480690862998
 30
0.0
 10
125.3043912139404
 20
820.5410474584326
 30
0.0
 10
125.0099506402159
 20
820.7846151030017
 30
0.0
 10
124.39623639002
 20
820.7846151030017
 30
0.0
 10
124.39623639002
 20
820.7846151030017
 30
0.0
 10
123.4198699232677
 20
820.7846151030017
 30
0.0
 10
123.4198699232677
 20
820.7846151030017
 30
0.0
 10
123.4198699232677
 20
820.7846151030017
 30
0.0
 10
123.4198699232677
 20
818.1923186282221
 30
0.0
 10
123.4198699232677
 20
818.1923186282221
 30
0.0
 10
123.4198699232677
 20
818.1923186282221
 30
0.0
 10
123.8140239786037
 20
818.1923186282221
 30
0.0
 10
123.8140239786037
 20
818.1923186282221
 30
0.0
 10
123.8140239786037
 20
818.1923186282221
 30
0.0
 10
123.8140239786037
 20
819.3086650398566
 30
0.0
 10
123.8140239786037
 20
819.3086650398566
 30
0.0
 10
123.8140239786037
 20
819.3086650398566
 30
0.0
 10
124.2350435133776
 20
819.3086650398566
 30
0.0
 10
124.2350435133776
 20
819.3086650398566
 30
0.0
 10
124.2350435133776
 20
819.3086650398566
 30
0.0
 10
124.9399606677726
 20
818.1923186282221
 30
0.0
 10
124.9399606677726
 20
818.1923186282221
 30
0.0
 10
124.9399606677726
 20
818.1923186282221
 30
0.0
 10
125.3619328791223
 20
818.1923186282221
 30
0.0
 10
125.3619328791223
 20
818.1923186282221
 30
0.0
 10
125.3619328791223
 20
818.1923186282221
 30
0.0
 10
124.6177019380321
 20
819.337435872449
 30
0.0
 10
124.6177019380321
 20
819.337435872449
 30
0.0
  0
SPLINE
  5
59
330
41
100
AcDbEntity
  8
Layer 1
 62
    40
370
    13
100
AcDbSpline
210
0.0
220
0.0
230
1.0
 70
    11
 71
     3
 72
    20
 73
    16
 74
     0
 42
0.0000000001
 43
0.0000000001
 12
1.0
 22
0.0
 32
0.0
 13
1.0
 23
0.0
 33
0.0
 40
0.0
 40
0.0
 40
0.0
 40
0.0
 40
1.0
 40
1.0
 40
1.0
 40
2.0
 40
2.0
 40
2.0
 40
3.0
 40
3.0
 40
3.0
 40
4.0
 40
4.0
 40
4.0
 40
5.0
 40
5.0
 40
5.0
 40
5.0
 10
124.2177683114709
 20
819.6280022280953
 30
0.0
 10
124.2177683114709
 20
819.6280022280953
 30
0.0
 10
123.8140239786037
 20
819.6280022280953
 30
0.0
 10
123.8140239786037
 20
819.6280022280953
 30
0.0
 10
123.8140239786037
 20
819.6280022280953
 30
0.0
 10
123.8140239786037
 20
820.4633725616153
 30
0.0
 10
123.8140239786037
 20
820.4633725616153
 30
0.0
 10
123.8140239786037
 20
820.4633725616153
 30
0.0
 10
124.3299936121135
 20
820.4633725616153
 30
0.0
 10
124.3299936121135
 20
820.4633725616153
 30
0.0
 10
124.5995375713209
 20
820.4633725616153
 30
0.0
 10
124.9111898351783
 20
820.4201845568339
 30
0.0
 10
124.9111898351783
 20
820.0653442881979
 30
0.0
 10
124.9111898351783
 20
819.6490881363067
 30
0.0
 10
124.5697505503773
 20
819.6280022280953
 30
0.0
 10
124.2177683114709
 20
819.6280022280953
 30
0.0
  0
POLYLINE
  5
5A
330
41
100
AcDbEntity
  8
Layer 1
 62
    40
370
    13
100
AcDb2dPolyline
 66
     1
 10
0.0
 20
0.0
 30
0.0
  0
VERTEX
  5
5B
330
5A
100
AcDbEntity
  8
Layer 1
 62
    40
370
    13
100
AcDbVertex
100
AcDb2dVertex
 10
36.37613581532992
 20
799.7381666136143
 30
0.0
  0
VERTEX
  5
5C
330
5A
100
AcDbEntity
  8
Layer 1
 62
    40
370
    13
100
AcDbVertex
100
AcDb2dVertex
 10
28.83505816276721
 20
821.2871539535381
 30
0.0
  0
VERTEX
  5
5D
330
5A
100
AcDbEntity
  8
Layer 1
 62
    40
370
    13
100
AcDbVertex
100
AcDb2dVertex
 10
21.49926631241421
 20
821.2871539535381
 30
0.0
  0
VERTEX
  5
5E
330
5A
100
AcDbEntity
  8
Layer 1
 62
    40
370
    13
100
AcDbVertex
100
AcDb2dVertex
 10
21.49926631241421
 20
792.893396802363
 30
0.0
  0
VERTEX
  5
5F
330
5A
100
AcDbEntity
  8
Layer 1
 62
    40
370
    13
100
AcDbVertex
100
AcDb2dVertex
 10
26.75299066949033
 20
792.893396802363
 30
0.0
  0
VERTEX
  5
60
330
5A
100
AcDbEntity
  8
Layer 1
 62
    40
370
    13
100
AcDbVertex
100
AcDb2dVertex
 10
26.75299066949033
 20
814.347438727074
 30
0.0
  0
VERTEX
  5
61
330
5A
100
AcDbEntity
  8
Layer 1
 62
    40
370
    13
100
AcDbVertex
100
AcDb2dVertex
 10
34.26140522606264
 20
792.893396802363
 30
0.0
  0
VERTEX
  5
62
330
5A
100
AcDbEntity
  8
Layer 1
 62
    40
370
    13
100
AcDbVertex
100
AcDb2dVertex
 10
38.4620666855558
 20
792.893396802363
 30
0.0
  0
VERTEX
  5
63
330
5A
100
AcDbEntity
  8
Layer 1
 62
    40
370
    13
100
AcDbVertex
100
AcDb2dVertex
 10
45.95133996544975
 20
814.4184063274303
 30
0.0
  0
VERTEX
  5
64
330
5A
100
AcDbEntity
  8
Layer 1
 62
    40
370
    13
100
AcDbVertex
100
AcDb2dVertex
 10
45.95133996544975
 20
792.893396802363
 30
0.0
  0
VERTEX
  5
65
330
5A
100
AcDbEntity
  8
Layer 1
 62
    40
370
    13
100
AcDbVertex
100
AcDb2dVertex
 10
51.20500578650751
 20
792.893396802363
 30
0.0
  0
VERTEX
  5
66
330
5A
100
AcDbEntity
  8
Layer 1
 62
    40
370
    13
100
AcDbVertex
100
AcDb2dVertex
 10
51.20500578650751
 20
821.2871539535381
 30
0.0
  0
VERTEX
  5
67
330
5A
100
AcDbEntity
  8
Layer 1
 62
    40
370
    13
100
AcDbVertex
100
AcDb2dVertex
 10
43.87015051238459
 20
821.2871539535381
 30
0.0
  0
VERTEX
  5
68
330
5A
100
AcDbEntity
  8
Layer 1
 62
    40
370
    13
100
AcDbVertex
100
AcDb2dVertex
 10
36.37613581532992
 20
799.7381666136143
 30
0.0
  0
SEQEND
  5
69
330
5A
100
AcDbEntity
  8
Layer 1
 62
    40
370
    13
  0
POLYLINE
  5
6A
330
41
100
AcDbEntity
  8
Layer 1
 62
    40
370
    13
100
AcDb2dPolyline
 66
     1
 10
0.0
 20
0.0
 30
0.0
  0
VERTEX
  5
6B
330
6A
100
AcDbEntity
  8
Layer 1
 62
    40
370
    13
100
AcDbVertex
100
AcDb2dVertex
 10
55.69624002107607
 20
816.5992972468831
 30
0.0
  0
VERTEX
  5
6C
330
6A
100
AcDbEntity
  8
Layer 1
 62
    40
370
    13
100
AcDbVertex
100
AcDb2dVertex
 10
60.82335097917477
 20
816.5992972468831
 30
0.0
  0
VERTEX
  5
6D
330
6A
100
AcDbEntity
  8
Layer 1
 62
    40
370
    13
100
AcDbVertex
100
AcDb2dVertex
 10
60.82335097917477
 20
821.2871539535381
 30
0.0
  0
VERTEX
  5
6E
330
6A
100
AcDbEntity
  8
Layer 1
 62
    40
370
    13
100
AcDbVertex
100
AcDb2dVertex
 10
55.69624002107607
 20
821.2871539535381
 30
0.0
  0
VERTEX
  5
6F
330
6A
100
AcDbEntity
  8
Layer 1
 62
    40
370
    13
100
AcDbVertex
100
AcDb2dVertex
 10
55.69624002107607
 20
816.5992972468831
 30
0.0
  0
SEQEND
  5
70
330
6A
100
AcDbEntity
  8
Layer 1
 62
    40
370
    13
  0
POLYLINE
  5
71
330
41
100
AcDbEntity
  8
Layer 1
 62
    40
370
    13
100
AcDb2dPolyline
 66
     1
 10
0.0
 20
0.0
 30
0.0
  0
VERTEX
  5
72
330
71
100
AcDbEntity
  8
Layer 1
 62
    40
370
    13
100
AcDbVertex
100
AcDb2dVertex
 10
55.69624002107607
 20
792.893396802363
 30
0.0
  0
VERTEX
  5
73
330
71
100
AcDbEntity
  8
Layer 1
 62
    40
370
    13
100
AcDbVertex
100
AcDb2dVertex
 10
60.82335097917477
 20
792.893396802363
 30
0.0
  0
VERTEX
  5
74
330
71
100
AcDbEntity
  8
Layer 1
 62
    40
370
    13
100
AcDbVertex
100
AcDb2dVertex
 10
60.82335097917477
 20
814.1594576340824
 30
0.0
  0
VERTEX
  5
75
330
71
100
AcDbEntity
  8
Layer 1
 62
    40
370
    13
100
AcDbVertex
100
AcDb2dVertex
 10
55.69624002107607
 20
814.1594576340824
 30
0.0
  0
VERTEX
  5
76
330
71
100
AcDbEntity
  8
Layer 1
 62
    40
370
    13
100
AcDbVertex
100
AcDb2dVertex
 10
55.69624002107607
 20
792.893396802363
 30
0.0
  0
SEQEND
  5
77
330
71
100
AcDbEntity
  8
Layer 1
 62
    40
370
    13
  0
POLYLINE
  5
78
330
41
100
AcDbEntity
  8
Layer 1
 62
    40
370
    13
100
AcDb2dPolyline
 66
     1
 10
0.0
 20
0.0
 30
0.0
  0
VERTEX
  5
79
330
78
100
AcDbEntity
  8
Layer 1
 62
    40
370
    13
100
AcDbVertex
100
AcDb2dVertex
 10
78.93609135359242
 20
821.2871539535381
 30
0.0
  0
VERTEX
  5
7A
330
78
100
AcDbEntity
  8
Layer 1
 62
    40
370
    13
100
AcDbVertex
100
AcDb2dVertex
 10
63.05123168412419
 20
821.2871539535381
 30
0.0
  0
VERTEX
  5
7B
330
78
100
AcDbEntity
  8
Layer 1
 62
    40
370
    13
100
AcDbVertex
100
AcDb2dVertex
 10
63.05123168412419
 20
816.4093990994296
 30
0.0
  0
VERTEX
  5
7C
330
78
100
AcDbEntity
  8
Layer 1
 62
    40
370
    13
100
AcDbVertex
100
AcDb2dVertex
 10
68.36536520796788
 20
816.4093990994296
 30
0.0
  0
VERTEX
  5
7D
330
78
100
AcDbEntity
  8
Layer 1
 62
    40
370
    13
100
AcDbVertex
100
AcDb2dVertex
 10
68.36536520796788
 20
792.893396802363
 30
0.0
  0
VERTEX
  5
7E
330
78
100
AcDbEntity
  8
Layer 1
 62
    40
370
    13
100
AcDbVertex
100
AcDb2dVertex
 10
73.61908956504656
 20
792.893396802363
 30
0.0
  0
VERTEX
  5
7F
330
78
100
AcDbEntity
  8
Layer 1
 62
    40
370
    13
100
AcDbVertex
100
AcDb2dVertex
 10
73.61908956504656
 20
816.4093990994296
 30
0.0
  0
VERTEX
  5
80
330
78
100
AcDbEntity
  8
Layer 1
 62
    40
370
    13
100
AcDbVertex
100
AcDb2dVertex
 10
78.93609135359242
 20
816.4093990994296
 30
0.0
  0
VERTEX
  5
81
330
78
100
AcDbEntity
  8
Layer 1
 62
    40
370
    13
100
AcDbVertex
100
AcDb2dVertex
 10
78.93609135359242
 20
821.2871539535381
 30
0.0
  0
SEQEND
  5
82
330
78
100
AcDbEntity
  8
Layer 1
 62
    40
370
    13
  0
ENDBLK
  5
44
330
41
100
AcDbEntity
  8
0
100
AcDbBlockEnd
  0
BLOCK
  5
85
330
83
100
AcDbEntity
  8
0
100
AcDbBlockBegin
  2
block 3
 70
     0
 10
0.0
 20
0.0
 30
0.0
  3
block 3
  1

  0
SPLINE
  5
87
330
83
100
AcDbEntity
  8
Layer 1
 62
    40
370
    13
100
AcDbSpline
210
0.0
220
0.0
230
1.0
 70
    11
 71
     3
 72
    26
 73
    22
 74
     0
 42
0.0000000001
 43
0.0000000001
 12
1.0
 22
0.0
 32
0.0
 13
1.0
 23
0.0
 33
0.0
 40
0.0
 40
0.0
 40
0.0
 40
0.0
 40
1.0
 40
1.0
 40
1.0
 40
2.0
 40
2.0
 40
2.0
 40
3.0
 40
3.0
 40
3.0
 40
4.0
 40
4.0
 40
4.0
 40
5.0
 40
5.0
 40
5.0
 40
6.0
 40
6.0
 40
6.0
 40
7.0
 40
7.0
 40
7.0
 40
7.0
 10
32.93718208453717
 20
781.4177087040829
 30
0.0
 10
38.55646670458726
 20
781.4177087040829
 30
0.0
 10
41.80646877183318
 20
778.2477720472377
 30
0.0
 10
41.80646877183318
 20
773.3915598079848
 30
0.0
 10
41.80646877183318
 20
770.2216231511433
 30
0.0
 10
39.71986613740567
 20
768.2134519391518
 30
0.0
 10
38.2754207741828
 20
767.491229257539
 30
0.0
 10
40.04176176699183
 20
766.6889411655252
 30
0.0
 10
42.24764552304641
 20
764.8833844614979
 30
0.0
 10
42.24764552304641
 20
761.0712905334444
 30
0.0
 10
42.24764552304641
 20
755.7314178558302
 30
0.0
 10
38.55646670458726
 20
752.8425271293818
 30
0.0
 10
33.45842424615093
 20
752.8425271293818
 30
0.0
 10
33.45842424615093
 20
752.8425271293818
 30
0.0
 10
21.49926631241421
 20
752.8425271293818
 30
0.0
 10
21.49926631241421
 20
752.8425271293818
 30
0.0
 10
21.49926631241421
 20
752.8425271293818
 30
0.0
 10
21.49926631241421
 20
781.4177087040829
 30
0.0
 10
21.49926631241421
 20
781.4177087040829
 30
0.0
 10
21.49926631241421
 20
781.4177087040829
 30
0.0
 10
32.93718208453717
 20
781.4177087040829
 30
0.0
 10
32.93718208453717
 20
781.4177087040829
 30
0.0
  0
SPLINE
  5
88
330
83
100
AcDbEntity
  8
Layer 1
 62
    40
370
    13
100
AcDbSpline
210
0.0
220
0.0
230
1.0
 70
    11
 71
     3
 72
    20
 73
    16
 74
     0
 42
0.0000000001
 43
0.0000000001
 12
1.0
 22
0.0
 32
0.0
 13
1.0
 23
0.0
 33
0.0
 40
0.0
 40
0.0
 40
0.0
 40
0.0
 40
1.0
 40
1.0
 40
1.0
 40
2.0
 40
2.0
 40
2.0
 40
3.0
 40
3.0
 40
3.0
 40
4.0
 40
4.0
 40
4.0
 40
5.0
 40
5.0
 40
5.0
 40
5.0
 10
27.07770123327362
 20
776.4422153432108
 30
0.0
 10
27.07770123327362
 20
776.4422153432108
 30
0.0
 10
27.07770123327362
 20
769.8196621111521
 30
0.0
 10
27.07770123327362
 20
769.8196621111521
 30
0.0
 10
27.07770123327362
 20
769.8196621111521
 30
0.0
 10
32.57607074373249
 20
769.8196621111521
 30
0.0
 10
32.57607074373249
 20
769.8196621111521
 30
0.0
 10
34.94371930855999
 20
769.8196621111521
 30
0.0
 10
36.22803385097378
 20
771.1431923647834
 30
0.0
 10
36.22803385097378
 20
773.151363576771
 30
0.0
 10
36.22803385097378
 20
775.1170511016109
 30
0.0
 10
34.94371930855999
 20
776.4422153432108
 30
0.0
 10
32.57607074373249
 20
776.4422153432108
 30
0.0
 10
32.57607074373249
 20
776.4422153432108
 30
0.0
 10
27.07770123327362
 20
776.4422153432108
 30
0.0
 10
27.07770123327362
 20
776.4422153432108
 30
0.0
  0
SPLINE
  5
89
330
83
100
AcDbEntity
  8
Layer 1
 62
    40
370
    13
100
AcDbSpline
210
0.0
220
0.0
230
1.0
 70
    11
 71
     3
 72
    20
 73
    16
 74
     0
 42
0.0000000001
 43
0.0000000001
 12
1.0
 22
0.0
 32
0.0
 13
1.0
 23
0.0
 33
0.0
 40
0.0
 40
0.0
 40
0.0
 40
0.0
 40
1.0
 40
1.0
 40
1.0
 40
2.0
 40
2.0
 40
2.0
 40
3.0
 40
3.0
 40
3.0
 40
4.0
 40
4.0
 40
4.0
 40
5.0
 40
5.0
 40
5.0
 40
5.0
 10
27.07770123327362
 20
764.8425347623114
 30
0.0
 10
27.07770123327362
 20
764.8425347623114
 30
0.0
 10
27.07770123327362
 20
757.8196544782228
 30
0.0
 10
27.07770123327362
 20
757.8196544782228
 30
0.0
 10
27.07770123327362
 20
757.8196544782228
 30
0.0
 10
32.93718208453717
 20
757.8196544782228
 30
0.0
 10
32.93718208453717
 20
757.8196544782228
 30
0.0
 10
35.42574575895556
 20
757.8196544782228
 30
0.0
 10
36.66921060218668
 20
759.345799239818
 30
0.0
 10
36.66921060218668
 20
761.3523364638444
 30
0.0
 10
36.66921060218668
 20
763.3163900007158
 30
0.0
 10
35.42574575895556
 20
764.8425347623114
 30
0.0
 10
32.93718208453717
 20
764.8425347623114
 30
0.0
 10
32.93718208453717
 20
764.8425347623114
 30
0.0
 10
27.07770123327362
 20
764.8425347623114
 30
0.0
 10
27.07770123327362
 20
764.8425347623114
 30
0.0
  0
SPLINE
  5
8A
330
83
100
AcDbEntity
  8
Layer 1
 62
    40
370
    13
100
AcDbSpline
210
0.0
220
0.0
230
1.0
 70
    11
 71
     3
 72
    29
 73
    25
 74
     0
 42
0.0000000001
 43
0.0000000001
 12
1.0
 22
0.0
 32
0.0
 13
1.0
 23
0.0
 33
0.0
 40
0.0
 40
0.0
 40
0.0
 40
0.0
 40
1.0
 40
1.0
 40
1.0
 40
2.0
 40
2.0
 40
2.0
 40
3.0
 40
3.0
 40
3.0
 40
4.0
 40
4.0
 40
4.0
 40
5.0
 40
5.0
 40
5.0
 40
6.0
 40
6.0
 40
6.0
 40
7.0
 40
7.0
 40
7.0
 40
8.0
 40
8.0
 40
8.0
 40
8.0
 10
64.97968612615728
 20
778.6497330872328
 30
0.0
 10
67.82936114138418
 20
775.8392737832202
 30
0.0
 10
67.86857685260686
 20
772.5892717159743
 30
0.0
 10
67.86857685260686
 20
767.1301179167342
 30
0.0
 10
67.86857685260686
 20
761.6725981054664
 30
0.0
 10
67.82936114138418
 20
758.4209620502412
 30
0.0
 10
64.97968612615728
 20
755.6105027462393
 30
0.0
 10
63.01236461334847
 20
753.6856649205862
 30
0.0
 10
60.60386634933509
 20
752.6006969101996
 30
0.0
 10
57.31301458289848
 20
752.6006969101996
 30
0.0
 10
54.02216281646572
 20
752.6006969101996
 30
0.0
 10
51.61366455244787
 20
753.6856649205862
 30
0.0
 10
49.64797702760707
 20
755.6105027462393
 30
0.0
 10
46.79830201238465
 20
758.4601777614662
 30
0.0
 10
46.75745231319781
 20
761.6725981054664
 30
0.0
 10
46.75745231319781
 20
767.1301179167342
 30
0.0
 10
46.75745231319781
 20
772.5892717159743
 30
0.0
 10
46.79830201238465
 20
775.8000580720023
 30
0.0
 10
49.64797702760707
 20
778.6497330872328
 30
0.0
 10
51.61366455244787
 20
780.5762049008513
 30
0.0
 10
54.02216281646572
 20
781.6595389232652
 30
0.0
 10
57.31301458289848
 20
781.6595389232652
 30
0.0
 10
60.60386634933509
 20
781.6595389232652
 30
0.0
 10
63.01236461334847
 20
780.5762049008513
 30
0.0
 10
64.97968612615728
 20
778.6497330872328
 30
0.0
  0
SPLINE
  5
8B
330
83
100
AcDbEntity
  8
Layer 1
 62
    40
370
    13
100
AcDbSpline
210
0.0
220
0.0
230
1.0
 70
    11
 71
     3
 72
    29
 73
    25
 74
     0
 42
0.0000000001
 43
0.0000000001
 12
1.0
 22
0.0
 32
0.0
 13
1.0
 23
0.0
 33
0.0
 40
0.0
 40
0.0
 40
0.0
 40
0.0
 40
1.0
 40
1.0
 40
1.0
 40
2.0
 40
2.0
 40
2.0
 40
3.0
 40
3.0
 40
3.0
 40
4.0
 40
4.0
 40
4.0
 40
5.0
 40
5.0
 40
5.0
 40
6.0
 40
6.0
 40
6.0
 40
7.0
 40
7.0
 40
7.0
 40
8.0
 40
8.0
 40
8.0
 40
8.0
 10
53.74111688606158
 20
775.1579008007942
 30
0.0
 10
52.65778286364755
 20
773.9536516687887
 30
0.0
 10
52.3358872340617
 20
772.5892717159743
 30
0.0
 10
52.3358872340617
 20
767.1301179167342
 30
0.0
 10
52.3358872340617
 20
761.6725981054664
 30
0.0
 10
52.65778286364755
 20
760.3490678518313
 30
0.0
 10
53.74111688606158
 20
759.143184731854
 30
0.0
 10
54.5434049780798
 20
758.221615518214
 30
0.0
 10
55.78850380927059
 20
757.5778242590407
 30
0.0
 10
57.31301458289848
 20
757.5778242590407
 30
0.0
 10
58.83915934449342
 20
757.5778242590407
 30
0.0
 10
60.0826241877207
 20
758.221615518214
 30
0.0
 10
60.88491227973475
 20
759.143184731854
 30
0.0
 10
61.96824630215294
 20
760.3490678518313
 30
0.0
 10
62.29014193173719
 20
761.6725981054664
 30
0.0
 10
62.29014193173719
 20
767.1301179167342
 30
0.0
 10
62.29014193173719
 20
772.5892717159743
 30
0.0
 10
61.96824630215294
 20
773.9536516687887
 30
0.0
 10
60.88491227973475
 20
775.1579008007942
 30
0.0
 10
60.0826241877207
 20
776.0811040024058
 30
0.0
 10
58.83915934449342
 20
776.6824115744247
 30
0.0
 10
57.31301458289848
 20
776.6824115744247
 30
0.0
 10
55.78850380927059
 20
776.6824115744247
 30
0.0
 10
54.5434049780798
 20
776.0811040024058
 30
0.0
 10
53.74111688606158
 20
775.1579008007942
 30
0.0
  0
POLYLINE
  5
8C
330
83
100
AcDbEntity
  8
Layer 1
 62
    40
370
    13
100
AcDb2dPolyline
 66
     1
 10
0.0
 20
0.0
 30
0.0
  0
VERTEX
  5
8D
330
8C
100
AcDbEntity
  8
Layer 1
 62
    40
370
    13
100
AcDbVertex
100
AcDb2dVertex
 10
97.70356315020437
 20
752.8425271293818
 30
0.0
  0
VERTEX
  5
8E
330
8C
100
AcDbEntity
  8
Layer 1
 62
    40
370
    13
100
AcDbVertex
100
AcDb2dVertex
 10
93.00748173176372
 20
752.8425271293818
 30
0.0
  0
VERTEX
  5
8F
330
8C
100
AcDbEntity
  8
Layer 1
 62
    40
370
    13
100
AcDbVertex
100
AcDb2dVertex
 10
87.74930845252247
 20
770.1399237527702
 30
0.0
  0
VERTEX
  5
90
330
8C
100
AcDbEntity
  8
Layer 1
 62
    40
370
    13
100
AcDbVertex
100
AcDb2dVertex
 10
82.53198487246775
 20
752.8425271293818
 30
0.0
  0
VERTEX
  5
91
330
8C
100
AcDbEntity
  8
Layer 1
 62
    40
370
    13
100
AcDbVertex
100
AcDb2dVertex
 10
77.87675315321296
 20
752.8425271293818
 30
0.0
  0
VERTEX
  5
92
330
8C
100
AcDbEntity
  8
Layer 1
 62
    40
370
    13
100
AcDbVertex
100
AcDb2dVertex
 10
70.21008160995417
 20
781.4177087040829
 30
0.0
  0
VERTEX
  5
93
330
8C
100
AcDbEntity
  8
Layer 1
 62
    40
370
    13
100
AcDbVertex
100
AcDb2dVertex
 10
76.03034674999729
 20
781.4177087040829
 30
0.0
  0
VERTEX
  5
94
330
8C
100
AcDbEntity
  8
Layer 1
 62
    40
370
    13
100
AcDbVertex
100
AcDb2dVertex
 10
80.44538223804055
 20
763.4373051103067
 30
0.0
  0
VERTEX
  5
95
330
8C
100
AcDbEntity
  8
Layer 1
 62
    40
370
    13
100
AcDbVertex
100
AcDb2dVertex
 10
85.70192152931153
 20
781.4177087040829
 30
0.0
  0
VERTEX
  5
96
330
8C
100
AcDbEntity
  8
Layer 1
 62
    40
370
    13
100
AcDbVertex
100
AcDb2dVertex
 10
89.83591108695032
 20
781.4177087040829
 30
0.0
  0
VERTEX
  5
97
330
8C
100
AcDbEntity
  8
Layer 1
 62
    40
370
    13
100
AcDbVertex
100
AcDb2dVertex
 10
95.09408436619573
 20
763.4373051103067
 30
0.0
  0
VERTEX
  5
98
330
8C
100
AcDbEntity
  8
Layer 1
 62
    40
370
    13
100
AcDbVertex
100
AcDb2dVertex
 10
99.50911985423609
 20
781.4177087040829
 30
0.0
  0
VERTEX
  5
99
330
8C
100
AcDbEntity
  8
Layer 1
 62
    40
370
    13
100
AcDbVertex
100
AcDb2dVertex
 10
105.3293849942773
 20
781.4177087040829
 30
0.0
  0
VERTEX
  5
9A
330
8C
100
AcDbEntity
  8
Layer 1
 62
    40
370
    13
100
AcDbVertex
100
AcDb2dVertex
 10
97.70356315020437
 20
752.8425271293818
 30
0.0
  0
SEQEND
  5
9B
330
8C
100
AcDbEntity
  8
Layer 1
 62
    40
370
    13
  0
POLYLINE
  5
9C
330
83
100
AcDbEntity
  8
Layer 1
 62
    40
370
    13
100
AcDb2dPolyline
 66
     1
 10
0.0
 20
0.0
 30
0.0
  0
VERTEX
  5
9D
330
9C
100
AcDbEntity
  8
Layer 1
 62
    40
370
    13
100
AcDbVertex
100
AcDb2dVertex
 10
134.80652792701
 20
752.8425271293818
 30
0.0
  0
VERTEX
  5
9E
330
9C
100
AcDbEntity
  8
Layer 1
 62
    40
370
    13
100
AcDbVertex
100
AcDb2dVertex
 10
129.2280930061506
 20
752.8425271293818
 30
0.0
  0
VERTEX
  5
9F
330
9C
100
AcDbEntity
  8
Layer 1
 62
    40
370
    13
100
AcDbVertex
100
AcDb2dVertex
 10
129.2280930061506
 20
769.4585507703474
 30
0.0
  0
VERTEX
  5
A0
330
9C
100
AcDbEntity
  8
Layer 1
 62
    40
370
    13
100
AcDbVertex
100
AcDb2dVertex
 10
123.7705731948776
 20
759.3033155526703
 30
0.0
  0
VERTEX
  5
A1
330
9C
100
AcDbEntity
  8
Layer 1
 62
    40
370
    13
100
AcDbVertex
100
AcDb2dVertex
 10
119.9976949780457
 20
759.3033155526703
 30
0.0
  0
VERTEX
  5
A2
330
9C
100
AcDbEntity
  8
Layer 1
 62
    40
370
    13
100
AcDbVertex
100
AcDb2dVertex
 10
114.4993254675865
 20
769.4585507703474
 30
0.0
  0
VERTEX
  5
A3
330
9C
100
AcDbEntity
  8
Layer 1
 62
    40
370
    13
100
AcDbVertex
100
AcDb2dVertex
 10
114.4993254675865
 20
752.8425271293818
 30
0.0
  0
VERTEX
  5
A4
330
9C
100
AcDbEntity
  8
Layer 1
 62
    40
370
    13
100
AcDbVertex
100
AcDb2dVertex
 10
108.920890546723
 20
752.8425271293818
 30
0.0
  0
VERTEX
  5
A5
330
9C
100
AcDbEntity
  8
Layer 1
 62
    40
370
    13
100
AcDbVertex
100
AcDb2dVertex
 10
108.920890546723
 20
781.4177087040829
 30
0.0
  0
VERTEX
  5
A6
330
9C
100
AcDbEntity
  8
Layer 1
 62
    40
370
    13
100
AcDbVertex
100
AcDb2dVertex
 10
114.4192600571818
 20
781.4177087040829
 30
0.0
  0
VERTEX
  5
A7
330
9C
100
AcDbEntity
  8
Layer 1
 62
    40
370
    13
100
AcDbVertex
100
AcDb2dVertex
 10
121.8833170924777
 20
766.6088757551205
 30
0.0
  0
VERTEX
  5
A8
330
9C
100
AcDbEntity
  8
Layer 1
 62
    40
370
    13
100
AcDbVertex
100
AcDb2dVertex
 10
129.308158416555
 20
781.4177087040829
 30
0.0
  0
VERTEX
  5
A9
330
9C
100
AcDbEntity
  8
Layer 1
 62
    40
370
    13
100
AcDbVertex
100
AcDb2dVertex
 10
134.80652792701
 20
781.4177087040829
 30
0.0
  0
VERTEX
  5
AA
330
9C
100
AcDbEntity
  8
Layer 1
 62
    40
370
    13
100
AcDbVertex
100
AcDb2dVertex
 10
134.80652792701
 20
752.8425271293818
 30
0.0
  0
SEQEND
  5
AB
330
9C
100
AcDbEntity
  8
Layer 1
 62
    40
370
    13
  0
POLYLINE
  5
AC
330
83
100
AcDbEntity
  8
Layer 1
 62
    40
370
    13
100
AcDb2dPolyline
 66
     1
 10
0.0
 20
0.0
 30
0.0
  0
VERTEX
  5
AD
330
AC
100
AcDbEntity
  8
Layer 1
 62
    40
370
    13
100
AcDbVertex
100
AcDb2dVertex
 10
163.5614481781308
 20
752.8425271293818
 30
0.0
  0
VERTEX
  5
AE
330
AC
100
AcDbEntity
  8
Layer 1
 62
    40
370
    13
100
AcDbVertex
100
AcDb2dVertex
 10
157.7019673268672
 20
752.8425271293818
 30
0.0
  0
VERTEX
  5
AF
330
AC
100
AcDbEntity
  8
Layer 1
 62
    40
370
    13
100
AcDbVertex
100
AcDb2dVertex
 10
156.0156917444632
 20
757.8980859006658
 30
0.0
  0
VERTEX
  5
B0
330
AC
100
AcDbEntity
  8
Layer 1
 62
    40
370
    13
100
AcDbVertex
100
AcDb2dVertex
 10
145.9029402139396
 20
757.8980859006658
 30
0.0
  0
VERTEX
  5
B1
330
AC
100
AcDbEntity
  8
Layer 1
 62
    40
370
    13
100
AcDbVertex
100
AcDb2dVertex
 10
144.1758149323449
 20
752.8425271293818
 30
0.0
  0
VERTEX
  5
B2
330
AC
100
AcDbEntity
  8
Layer 1
 62
    40
370
    13
100
AcDbVertex
100
AcDb2dVertex
 10
138.316334081083
 20
752.8425271293818
 30
0.0
  0
VERTEX
  5
B3
330
AC
100
AcDbEntity
  8
Layer 1
 62
    40
370
    13
100
AcDbVertex
100
AcDb2dVertex
 10
148.7509812411988
 20
781.4177087040829
 30
0.0
  0
VERTEX
  5
B4
330
AC
100
AcDbEntity
  8
Layer 1
 62
    40
370
    13
100
AcDbVertex
100
AcDb2dVertex
 10
153.1268010180172
 20
781.4177087040829
 30
0.0
  0
VERTEX
  5
B5
330
AC
100
AcDbEntity
  8
Layer 1
 62
    40
370
    13
100
AcDbVertex
100
AcDb2dVertex
 10
163.5614481781308
 20
752.8425271293818
 30
0.0
  0
SEQEND
  5
B6
330
AC
100
AcDbEntity
  8
Layer 1
 62
    40
370
    13
  0
POLYLINE
  5
B7
330
83
100
AcDbEntity
  8
Layer 1
 62
    40
370
    13
100
AcDb2dPolyline
 66
     1
 10
0.0
 20
0.0
 30
0.0
  0
VERTEX
  5
B8
330
B7
100
AcDbEntity
  8
Layer 1
 62
    40
370
    13
100
AcDbVertex
100
AcDb2dVertex
 10
147.4274509875627
 20
762.5941673191027
 30
0.0
  0
VERTEX
  5
B9
330
B7
100
AcDbEntity
  8
Layer 1
 62
    40
370
    13
100
AcDbVertex
100
AcDb2dVertex
 10
154.4503312716495
 20
762.5941673191027
 30
0.0
  0
VERTEX
  5
BA
330
B7
100
AcDbEntity
  8
Layer 1
 62
    40
370
    13
100
AcDbVertex
100
AcDb2dVertex
 10
150.9584989852176
 20
772.950383056779
 30
0.0
  0
VERTEX
  5
BB
330
B7
100
AcDbEntity
  8
Layer 1
 62
    40
370
    13
100
AcDbVertex
100
AcDb2dVertex
 10
147.4274509875627
 20
762.5941673191027
 30
0.0
  0
SEQEND
  5
BC
330
B7
100
AcDbEntity
  8
Layer 1
 62
    40
370
    13
  0
SPLINE
  5
BD
330
83
100
AcDbEntity
  8
Layer 1
 62
    40
370
    13
100
AcDbSpline
210
0.0
220
0.0
230
1.0
 70
    11
 71
     3
 72
    47
 73
    43
 74
     0
 42
0.0000000001
 43
0.0000000001
 12
1.0
 22
0.0
 32
0.0
 13
1.0
 23
0.0
 33
0.0
 40
0.0
 40
0.0
 40
0.0
 40
0.0
 40
1.0
 40
1.0
 40
1.0
 40
2.0
 40
2.0
 40
2.0
 40
3.0
 40
3.0
 40
3.0
 40
4.0
 40
4.0
 40
4.0
 40
5.0
 40
5.0
 40
5.0
 40
6.0
 40
6.0
 40
6.0
 40
7.0
 40
7.0
 40
7.0
 40
8.0
 40
8.0
 40
8.0
 40
9.0
 40
9.0
 40
9.0
 40
10.0
 40
10.0
 40
10.0
 40
11.0
 40
11.0
 40
11.0
 40
12.0
 40
12.0
 40
12.0
 40
13.0
 40
13.0
 40
13.0
 40
14.0
 40
14.0
 40
14.0
 40
14.0
 10
186.7330315444872
 20
772.6284874271925
 30
0.0
 10
186.7330315444872
 20
772.6284874271925
 30
0.0
 10
181.0745312132231
 20
772.6284874271925
 30
0.0
 10
181.0745312132231
 20
772.6284874271925
 30
0.0
 10
180.512439352419
 20
774.9569202808018
 30
0.0
 10
179.0271442900099
 20
776.6824115744247
 30
0.0
 10
176.2575346851874
 20
776.6824115744247
 30
0.0
 10
174.7330239115601
 20
776.6824115744247
 30
0.0
 10
173.4879250803645
 20
776.1203197136241
 30
0.0
 10
172.6856369883466
 20
775.1971165120156
 30
0.0
 10
171.6415186771508
 20
773.9928673800065
 30
0.0
 10
171.2804073363464
 20
772.5892717159743
 30
0.0
 10
171.2804073363464
 20
767.1301179167342
 30
0.0
 10
171.2804073363464
 20
761.6725981054664
 30
0.0
 10
171.6415186771508
 20
760.267368453462
 30
0.0
 10
172.6856369883466
 20
759.064753309418
 30
0.0
 10
173.4879250803645
 20
758.1399161198409
 30
0.0
 10
174.7330239115601
 20
757.5778242590407
 30
0.0
 10
176.2575346851874
 20
757.5778242590407
 30
0.0
 10
179.0271442900099
 20
757.5778242590407
 30
0.0
 10
180.512439352419
 20
759.3033155526703
 30
0.0
 10
181.0745312132231
 20
761.6333823942447
 30
0.0
 10
181.0745312132231
 20
761.6333823942447
 30
0.0
 10
186.7330315444872
 20
761.6333823942447
 30
0.0
 10
186.7330315444872
 20
761.6333823942447
 30
0.0
 10
185.7297629324737
 20
755.6529864333909
 30
0.0
 10
181.5957733748372
 20
752.6006969101996
 30
0.0
 10
176.2575346851874
 20
752.6006969101996
 30
0.0
 10
172.9666829187511
 20
752.6006969101996
 30
0.0
 10
170.5581846547371
 20
753.6856649205862
 30
0.0
 10
168.5924971298963
 20
755.6105027462393
 30
0.0
 10
165.7428221146732
 20
758.4601777614662
 30
0.0
 10
165.701972415487
 20
761.6725981054664
 30
0.0
 10
165.701972415487
 20
767.1301179167342
 30
0.0
 10
165.701972415487
 20
772.5892717159743
 30
0.0
 10
165.7428221146732
 20
775.8000580720023
 30
0.0
 10
168.5924971298963
 20
778.6497330872328
 30
0.0
 10
170.5581846547371
 20
780.5762049008513
 30
0.0
 10
172.9666829187511
 20
781.6595389232652
 30
0.0
 10
176.2575346851874
 20
781.6595389232652
 30
0.0
 10
181.5957733748372
 20
781.6595389232652
 30
0.0
 10
185.7297629324737
 20
778.6088833880463
 30
0.0
 10
186.7330315444872
 20
772.6284874271925
 30
0.0
  0
SPLINE
  5
BE
330
83
100
AcDbEntity
  8
Layer 1
 62
    40
370
    13
100
AcDbSpline
210
0.0
220
0.0
230
1.0
 70
    11
 71
     3
 72
    17
 73
    13
 74
     0
 42
0.0000000001
 43
0.0000000001
 12
1.0
 22
0.0
 32
0.0
 13
1.0
 23
0.0
 33
0.0
 40
0.0
 40
0.0
 40
0.0
 40
0.0
 40
1.0
 40
1.0
 40
1.0
 40
2.0
 40
2.0
 40
2.0
 40
3.0
 40
3.0
 40
3.0
 40
4.0
 40
4.0
 40
4.0
 40
4.0
 10
188.9439371540986
 20
779.7264262141342
 30
0.0
 10
188.9439371540986
 20
780.9601349686644
 30
0.0
 10
189.9154836106307
 20
781.959097258646
 30
0.0
 10
191.1139331750788
 20
781.959097258646
 30
0.0
 10
192.3123827395262
 20
781.959097258646
 30
0.0
 10
193.2839291960628
 20
780.9601349686644
 30
0.0
 10
193.2839291960628
 20
779.7264262141342
 30
0.0
 10
193.2839291960628
 20
778.4933623674807
 30
0.0
 10
192.3123827395262
 20
777.4944000774849
 30
0.0
 10
191.1139331750788
 20
777.4944000774849
 30
0.0
 10
189.9154836106307
 20
777.4944000774849
 30
0.0
 10
188.9439371540986
 20
778.4933623674807
 30
0.0
 10
188.9439371540986
 20
779.7264262141342
 30
0.0
  0
SPLINE
  5
BF
330
83
100
AcDbEntity
  8
Layer 1
 62
    40
370
    13
100
AcDbSpline
210
0.0
220
0.0
230
1.0
 70
    11
 71
     3
 72
    17
 73
    13
 74
     0
 42
0.0000000001
 43
0.0000000001
 12
1.0
 22
0.0
 32
0.0
 13
1.0
 23
0.0
 33
0.0
 40
0.0
 40
0.0
 40
0.0
 40
0.0
 40
1.0
 40
1.0
 40
1.0
 40
2.0
 40
2.0
 40
2.0
 40
3.0
 40
3.0
 40
3.0
 40
4.0
 40
4.0
 40
4.0
 40
4.0
 10
192.7686961720188
 20
779.7264262141342
 30
0.0
 10
192.7686961720188
 20
780.7195843333039
 30
0.0
 10
192.0491249900187
 20
781.4592936597186
 30
0.0
 10
191.1139331750788
 20
781.4592936597186
 30
0.0
 10
190.1787413601424
 20
781.4592936597186
 30
0.0
 10
189.4591701781464
 20
780.7195843333039
 30
0.0
 10
189.4591701781464
 20
779.7264262141342
 30
0.0
 10
189.4591701781464
 20
778.7339130028375
 30
0.0
 10
190.1787413601424
 20
777.9935587685568
 30
0.0
 10
191.1139331750788
 20
777.9935587685568
 30
0.0
 10
192.0491249900187
 20
777.9935587685568
 30
0.0
 10
192.7686961720188
 20
778.7339130028375
 30
0.0
 10
192.7686961720188
 20
779.7264262141342
 30
0.0
  0
SPLINE
  5
C0
330
83
100
AcDbEntity
  8
Layer 1
 62
    40
370
    13
100
AcDbSpline
210
0.0
220
0.0
230
1.0
 70
    11
 71
     3
 72
    35
 73
    31
 74
     0
 42
0.0000000001
 43
0.0000000001
 12
1.0
 22
0.0
 32
0.0
 13
1.0
 23
0.0
 33
0.0
 40
0.0
 40
0.0
 40
0.0
 40
0.0
 40
1.0
 40
1.0
 40
1.0
 40
2.0
 40
2.0
 40
2.0
 40
3.0
 40
3.0
 40
3.0
 40
4.0
 40
4.0
 40
4.0
 40
5.0
 40
5.0
 40
5.0
 40
6.0
 40
6.0
 40
6.0
 40
7.0
 40
7.0
 40
7.0
 40
8.0
 40
8.0
 40
8.0
 40
9.0
 40
9.0
 40
9.0
 40
10.0
 40
10.0
 40
10.0
 40
10.0
 10
190.3229063182083
 20
780.9169261413895
 30
0.0
 10
190.3229063182083
 20
780.9169261413895
 30
0.0
 10
191.263112566467
 20
780.9169261413895
 30
0.0
 10
191.263112566467
 20
780.9169261413895
 30
0.0
 10
191.7307084739349
 20
780.9169261413895
 30
0.0
 10
192.0303208650512
 20
780.5654513524718
 30
0.0
 10
192.0303208650512
 20
780.1707677362828
 30
0.0
 10
192.0303208650512
 20
779.8437994463943
 30
0.0
 10
191.8272363154257
 20
779.63420438878
 30
0.0
 10
191.6053476408365
 20
779.5413376555596
 30
0.0
 10
191.6053476408365
 20
779.5413376555596
 30
0.0
 10
192.0904940649373
 20
778.542375365578
 30
0.0
 10
192.0904940649373
 20
778.542375365578
 30
0.0
 10
192.0904940649373
 20
778.542375365578
 30
0.0
 10
191.5038053660234
 20
778.542375365578
 30
0.0
 10
191.5038053660234
 20
778.542375365578
 30
0.0
 10
191.5038053660234
 20
778.542375365578
 30
0.0
 10
191.0838465751396
 20
779.4613690797413
 30
0.0
 10
191.0838465751396
 20
779.4613690797413
 30
0.0
 10
191.0838465751396
 20
779.4613690797413
 30
0.0
 10
190.8381393422564
 20
779.4613690797413
 30
0.0
 10
190.8381393422564
 20
779.4613690797413
 30
0.0
 10
190.8381393422564
 20
779.4613690797413
 30
0.0
 10
190.8381393422564
 20
778.542375365578
 30
0.0
 10
190.8381393422564
 20
778.542375365578
 30
0.0
 10
190.8381393422564
 20
778.542375365578
 30
0.0
 10
190.3229063182083
 20
778.542375365578
 30
0.0
 10
190.3229063182083
 20
778.542375365578
 30
0.0
 10
190.3229063182083
 20
778.542375365578
 30
0.0
 10
190.3229063182083
 20
780.9169261413895
 30
0.0
 10
190.3229063182083
 20
780.9169261413895
 30
0.0
  0
SPLINE
  5
C1
330
83
100
AcDbEntity
  8
Layer 1
 62
    40
370
    13
100
AcDbSpline
210
0.0
220
0.0
230
1.0
 70
    11
 71
     3
 72
    20
 73
    16
 74
     0
 42
0.0000000001
 43
0.0000000001
 12
1.0
 22
0.0
 32
0.0
 13
1.0
 23
0.0
 33
0.0
 40
0.0
 40
0.0
 40
0.0
 40
0.0
 40
1.0
 40
1.0
 40
1.0
 40
2.0
 40
2.0
 40
2.0
 40
3.0
 40
3.0
 40
3.0
 40
4.0
 40
4.0
 40
4.0
 40
5.0
 40
5.0
 40
5.0
 40
5.0
 10
191.1979249332585
 20
779.8625017746224
 30
0.0
 10
191.3897270079002
 20
779.8625017746224
 30
0.0
 10
191.5150878410034
 20
780.0043815059221
 30
0.0
 10
191.5150878410034
 20
780.1707677362828
 30
0.0
 10
191.5150878410034
 20
780.3371539666332
 30
0.0
 10
191.3897270079002
 20
780.4790336979438
 30
0.0
 10
191.1979249332585
 20
780.4790336979438
 30
0.0
 10
191.1979249332585
 20
780.4790336979438
 30
0.0
 10
190.8381393422564
 20
780.4790336979438
 30
0.0
 10
190.8381393422564
 20
780.4790336979438
 30
0.0
 10
190.8381393422564
 20
780.4790336979438
 30
0.0
 10
190.8381393422564
 20
779.8625017746224
 30
0.0
 10
190.8381393422564
 20
779.8625017746224
 30
0.0
 10
190.8381393422564
 20
779.8625017746224
 30
0.0
 10
191.1979249332585
 20
779.8625017746224
 30
0.0
 10
191.1979249332585
 20
779.8625017746224
 30
0.0
  0
ENDBLK
  5
86
330
83
100
AcDbEntity
  8
0
100
AcDbBlockEnd
  0
BLOCK
  5
C4
330
C2
100
AcDbEntity
  8
0
100
AcDbBlockBegin
  2
block 4
 70
     0
 10
0.0
 20
0.0
 30
0.0
  3
block 4
  1

  0
SPLINE
  5
C6
330
C2
100
AcDbEntity
  8
Layer 1
 62
    40
370
    13
100
AcDbSpline
210
0.0
220
0.0
230
1.0
 70
    11
 71
     3
 72
    65
 73
    61
 74
     0
 42
0.0000000001
 43
0.0000000001
 12
1.0
 22
0.0
 32
0.0
 13
1.0
 23
0.0
 33
0.0
 40
0.0
 40
0.0
 40
0.0
 40
0.0
 40
1.0
 40
1.0
 40
1.0
 40
2.0
 40
2.0
 40
2.0
 40
3.0
 40
3.0
 40
3.0
 40
4.0
 40
4.0
 40
4.0
 40
5.0
 40
5.0
 40
5.0
 40
6.0
 40
6.0
 40
6.0
 40
7.0
 40
7.0
 40
7.0
 40
8.0
 40
8.0
 40
8.0
 40
9.0
 40
9.0
 40
9.0
 40
10.0
 40
10.0
 40
10.0
 40
11.0
 40
11.0
 40
11.0
 40
12.0
 40
12.0
 40
12.0
 40
13.0
 40
13.0
 40
13.0
 40
14.0
 40
14.0
 40
14.0
 40
15.0
 40
15.0
 40
15.0
 40
16.0
 40
16.0
 40
16.0
 40
17.0
 40
17.0
 40
17.0
 40
18.0
 40
18.0
 40
18.0
 40
19.0
 40
19.0
 40
19.0
 40
20.0
 40
20.0
 40
20.0
 40
20.0
 10
34.44845820450313
 20
739.9685355302204
 30
0.0
 10
34.44845820450313
 20
739.9685355302204
 30
0.0
 10
33.06257188006558
 20
738.582649205779
 30
0.0
 10
33.06257188006558
 20
738.582649205779
 30
0.0
 10
31.84704367524057
 20
739.7429261285661
 30
0.0
 10
30.4623084191764
 20
740.3368774104666
 30
0.0
 10
28.369666112006
 20
740.3368774104666
 30
0.0
 10
25.65544688191786
 20
740.3368774104666
 30
0.0
 10
24.10035350623729
 20
738.8381863852035
 30
0.0
 10
24.10035350623729
 20
736.5751859584167
 30
0.0
 10
24.10035350623729
 20
735.5852671552489
 30
0.0
 10
24.38351632667927
 20
734.7657064716911
 30
0.0
 10
25.00509324960085
 20
734.2293086085747
 30
0.0
 10
25.62667017252213
 20
733.6929107454656
 30
0.0
 10
26.58781226629896
 20
733.352194506229
 30
0.0
 10
27.63413341988352
 20
733.1841385233699
 30
0.0
 10
27.63413341988352
 20
733.1841385233699
 30
0.0
 10
29.98116183810016
 20
732.8157966431199
 30
0.0
 10
29.98116183810016
 20
732.8157966431199
 30
0.0
 10
31.84704367524057
 20
732.5326338226779
 30
0.0
 10
32.72300670921
 20
732.1942197201951
 30
0.0
 10
33.62774645257358
 20
731.3746590366409
 30
0.0
 10
34.7028443155513
 20
730.4399915155075
 30
0.0
 10
35.32442123847482
 20
729.0840329688365
 30
0.0
 10
35.32442123847482
 20
727.4149838239538
 30
0.0
 10
35.32442123847482
 20
723.8812039103076
 30
0.0
 10
32.58257636736305
 20
721.7033825433323
 30
0.0
 10
28.369666112006
 20
721.7033825433323
 30
0.0
 10
25.37228406147652
 20
721.7033825433323
 30
0.0
 10
23.36482081411288
 20
722.4676919448525
 30
0.0
 10
21.49893897697472
 20
724.362350491386
 30
0.0
 10
21.49893897697472
 20
724.362350491386
 30
0.0
 10
22.94122765182587
 20
725.8034880978619
 30
0.0
 10
22.94122765182587
 20
725.8034880978619
 30
0.0
 10
24.6091257283317
 20
724.1367410897356
 30
0.0
 10
26.16421910401227
 20
723.6256667308863
 30
0.0
 10
28.42606846241959
 20
723.6256667308863
 30
0.0
 10
31.39467380355975
 20
723.6256667308863
 30
0.0
 10
33.20415329028656
 20
724.983927414307
 30
0.0
 10
33.20415329028656
 20
727.3597325419194
 30
0.0
 10
33.20415329028656
 20
728.4325282681486
 30
0.0
 10
32.89336482882481
 20
729.2820167294736
 30
0.0
 10
32.21423448711367
 20
729.8759680113774
 30
0.0
 10
31.59265756419433
 20
730.4399915155075
 30
0.0
 10
31.0274829916844
 20
730.6379752761446
 30
0.0
 10
29.58519431683325
 20
730.8635846777913
 30
0.0
 10
29.58519431683325
 20
730.8635846777913
 30
0.0
 10
27.23816589861629
 20
731.204300917028
 30
0.0
 10
27.23816589861629
 20
731.204300917028
 30
0.0
 10
25.65544688191786
 20
731.4575359596957
 30
0.0
 10
24.46754431811071
 20
731.9386825407742
 30
0.0
 10
23.56280457474746
 20
732.7306175833115
 30
0.0
 10
22.54526013055703
 20
733.6353573266741
 30
0.0
 10
22.00771119906689
 20
734.8785111725164
 30
0.0
 10
22.00771119906689
 20
736.5199346763823
 30
0.0
 10
22.00771119906689
 20
739.9409098891997
 30
0.0
 10
24.46754431811071
 20
742.173982538216
 30
0.0
 10
28.45484517181533
 20
742.173982538216
 30
0.0
 10
31.0274829916844
 20
742.173982538216
 30
0.0
 10
32.72300670921
 20
741.494852196504
 30
0.0
 10
34.44845820450313
 20
739.9685355302204
 30
0.0
  0
SPLINE
  5
C7
330
C2
100
AcDbEntity
  8
Layer 1
 62
    40
370
    13
100
AcDbSpline
210
0.0
220
0.0
230
1.0
 70
    11
 71
     3
 72
    53
 73
    49
 74
     0
 42
0.0000000001
 43
0.0000000001
 12
1.0
 22
0.0
 32
0.0
 13
1.0
 23
0.0
 33
0.0
 40
0.0
 40
0.0
 40
0.0
 40
0.0
 40
1.0
 40
1.0
 40
1.0
 40
2.0
 40
2.0
 40
2.0
 40
3.0
 40
3.0
 40
3.0
 40
4.0
 40
4.0
 40
4.0
 40
5.0
 40
5.0
 40
5.0
 40
6.0
 40
6.0
 40
6.0
 40
7.0
 40
7.0
 40
7.0
 40
8.0
 40
8.0
 40
8.0
 40
9.0
 40
9.0
 40
9.0
 40
10.0
 40
10.0
 40
10.0
 40
11.0
 40
11.0
 40
11.0
 40
12.0
 40
12.0
 40
12.0
 40
13.0
 40
13.0
 40
13.0
 40
14.0
 40
14.0
 40
14.0
 40
15.0
 40
15.0
 40
15.0
 40
16.0
 40
16.0
 40
16.0
 40
16.0
 10
41.83716610863905
 20
735.7832509158828
 30
0.0
 10
41.83716610863905
 20
735.7832509158828
 30
0.0
 10
44.80577144977921
 20
735.7832509158828
 30
0.0
 10
44.80577144977921
 20
735.7832509158828
 30
0.0
 10
44.80577144977921
 20
735.7832509158828
 30
0.0
 10
44.80577144977921
 20
734.2293086085747
 30
0.0
 10
44.80577144977921
 20
734.2293086085747
 30
0.0
 10
44.80577144977921
 20
734.2293086085747
 30
0.0
 10
41.83716610863905
 20
734.2293086085747
 30
0.0
 10
41.83716610863905
 20
734.2293086085747
 30
0.0
 10
41.83716610863905
 20
734.2293086085747
 30
0.0
 10
41.83716610863905
 20
725.6630577560194
 30
0.0
 10
41.83716610863905
 20
725.6630577560194
 30
0.0
 10
41.83716610863905
 20
724.362350491386
 30
0.0
 10
42.43111739054665
 20
723.6256667308863
 30
0.0
 10
43.73182465517488
 20
723.6256667308863
 30
0.0
 10
43.73182465517488
 20
723.6256667308863
 30
0.0
 10
44.80577144977921
 20
723.6256667308863
 30
0.0
 10
44.80577144977921
 20
723.6256667308863
 30
0.0
 10
44.80577144977921
 20
723.6256667308863
 30
0.0
 10
44.80577144977921
 20
721.8737406629484
 30
0.0
 10
44.80577144977921
 20
721.8737406629484
 30
0.0
 10
44.80577144977921
 20
721.8737406629484
 30
0.0
 10
43.36348277492582
 20
721.8737406629484
 30
0.0
 10
43.36348277492582
 20
721.8737406629484
 30
0.0
 10
40.98882871569132
 20
721.8737406629484
 30
0.0
 10
39.80092615188385
 20
723.5427898078318
 30
0.0
 10
39.80092615188385
 20
725.6055043372282
 30
0.0
 10
39.80092615188385
 20
725.6055043372282
 30
0.0
 10
39.80092615188385
 20
734.2293086085747
 30
0.0
 10
39.80092615188385
 20
734.2293086085747
 30
0.0
 10
39.80092615188385
 20
734.2293086085747
 30
0.0
 10
38.04784901557062
 20
734.2293086085747
 30
0.0
 10
38.04784901557062
 20
734.2293086085747
 30
0.0
 10
38.04784901557062
 20
734.2293086085747
 30
0.0
 10
38.04784901557062
 20
735.7832509158828
 30
0.0
 10
38.04784901557062
 20
735.7832509158828
 30
0.0
 10
38.04784901557062
 20
735.7832509158828
 30
0.0
 10
39.80092615188385
 20
735.7832509158828
 30
0.0
 10
39.80092615188385
 20
735.7832509158828
 30
0.0
 10
39.80092615188385
 20
735.7832509158828
 30
0.0
 10
39.80092615188385
 20
740.0537145900249
 30
0.0
 10
39.80092615188385
 20
740.0537145900249
 30
0.0
 10
39.80092615188385
 20
740.0537145900249
 30
0.0
 10
41.83716610863905
 20
740.0537145900249
 30
0.0
 10
41.83716610863905
 20
740.0537145900249
 30
0.0
 10
41.83716610863905
 20
740.0537145900249
 30
0.0
 10
41.83716610863905
 20
735.7832509158828
 30
0.0
 10
41.83716610863905
 20
735.7832509158828
 30
0.0
  0
SPLINE
  5
C8
330
C2
100
AcDbEntity
  8
Layer 1
 62
    40
370
    13
100
AcDbSpline
210
0.0
220
0.0
230
1.0
 70
    11
 71
     3
 72
    35
 73
    31
 74
     0
 42
0.0000000001
 43
0.0000000001
 12
1.0
 22
0.0
 32
0.0
 13
1.0
 23
0.0
 33
0.0
 40
0.0
 40
0.0
 40
0.0
 40
0.0
 40
1.0
 40
1.0
 40
1.0
 40
2.0
 40
2.0
 40
2.0
 40
3.0
 40
3.0
 40
3.0
 40
4.0
 40
4.0
 40
4.0
 40
5.0
 40
5.0
 40
5.0
 40
6.0
 40
6.0
 40
6.0
 40
7.0
 40
7.0
 40
7.0
 40
8.0
 40
8.0
 40
8.0
 40
9.0
 40
9.0
 40
9.0
 40
10.0
 40
10.0
 40
10.0
 40
10.0
 10
58.12593469431117
 20
734.6529017708658
 30
0.0
 10
58.12593469431117
 20
734.6529017708658
 30
0.0
 10
56.62724366904418
 20
733.1265851045823
 30
0.0
 10
56.62724366904418
 20
733.1265851045823
 30
0.0
 10
55.86408533590385
 20
733.8908945060989
 30
0.0
 10
55.29891076339393
 20
734.1441295487698
 30
0.0
 10
54.22496396879183
 20
734.1441295487698
 30
0.0
 10
52.1887240120347
 20
734.1441295487698
 30
0.0
 10
50.8880167474023
 20
732.5326338226779
 30
0.0
 10
50.8880167474023
 20
730.4123658744871
 30
0.0
 10
50.8880167474023
 20
730.4123658744871
 30
0.0
 10
50.8880167474023
 20
721.8737406629484
 30
0.0
 10
50.8880167474023
 20
721.8737406629484
 30
0.0
 10
50.8880167474023
 20
721.8737406629484
 30
0.0
 10
48.85292785902337
 20
721.8737406629484
 30
0.0
 10
48.85292785902337
 20
721.8737406629484
 30
0.0
 10
48.85292785902337
 20
721.8737406629484
 30
0.0
 10
48.85292785902337
 20
735.7832509158828
 30
0.0
 10
48.85292785902337
 20
735.7832509158828
 30
0.0
 10
48.85292785902337
 20
735.7832509158828
 30
0.0
 10
50.8880167474023
 20
735.7832509158828
 30
0.0
 10
50.8880167474023
 20
735.7832509158828
 30
0.0
 10
50.8880167474023
 20
735.7832509158828
 30
0.0
 10
50.8880167474023
 20
734.0865761299822
 30
0.0
 10
50.8880167474023
 20
734.0865761299822
 30
0.0
 10
51.6511750805468
 20
735.2468530527699
 30
0.0
 10
53.17864281520535
 20
735.9536090354957
 30
0.0
 10
54.79013854129727
 20
735.9536090354957
 30
0.0
 10
56.1184714469501
 20
735.9536090354957
 30
0.0
 10
57.13601589114052
 20
735.6428205740365
 30
0.0
 10
58.12593469431117
 20
734.6529017708658
 30
0.0
  0
SPLINE
  5
C9
330
C2
100
AcDbEntity
  8
Layer 1
 62
    40
370
    13
100
AcDbSpline
210
0.0
220
0.0
230
1.0
 70
    11
 71
     3
 72
    44
 73
    40
 74
     0
 42
0.0000000001
 43
0.0000000001
 12
1.0
 22
0.0
 32
0.0
 13
1.0
 23
0.0
 33
0.0
 40
0.0
 40
0.0
 40
0.0
 40
0.0
 40
1.0
 40
1.0
 40
1.0
 40
2.0
 40
2.0
 40
2.0
 40
3.0
 40
3.0
 40
3.0
 40
4.0
 40
4.0
 40
4.0
 40
5.0
 40
5.0
 40
5.0
 40
6.0
 40
6.0
 40
6.0
 40
7.0
 40
7.0
 40
7.0
 40
8.0
 40
8.0
 40
8.0
 40
9.0
 40
9.0
 40
9.0
 40
10.0
 40
10.0
 40
10.0
 40
11.0
 40
11.0
 40
11.0
 40
12.0
 40
12.0
 40
12.0
 40
13.0
 40
13.0
 40
13.0
 40
13.0
 10
71.59113255419167
 20
721.8737406629484
 30
0.0
 10
71.59113255419167
 20
721.8737406629484
 30
0.0
 10
69.5836693068306
 20
721.8737406629484
 30
0.0
 10
69.5836693068306
 20
721.8737406629484
 30
0.0
 10
69.5836693068306
 20
721.8737406629484
 30
0.0
 10
69.5836693068306
 20
723.4276829702527
 30
0.0
 10
69.5836693068306
 20
723.4276829702527
 30
0.0
 10
68.59375050366026
 20
722.297333825236
 30
0.0
 10
67.2090152475961
 20
721.7033825433323
 30
0.0
 10
65.65392187191777
 20
721.7033825433323
 30
0.0
 10
64.15523084664854
 20
721.7033825433323
 30
0.0
 10
62.91092593243197
 20
722.1569034833904
 30
0.0
 10
62.06373960785795
 20
723.0040898079653
 30
0.0
 10
61.07382080468538
 20
723.9663829701155
 30
0.0
 10
60.62145093300263
 20
725.2947158757694
 30
0.0
 10
60.62145093300263
 20
726.9062116018613
 30
0.0
 10
60.62145093300263
 20
726.9062116018613
 30
0.0
 10
60.62145093300263
 20
735.7832509158828
 30
0.0
 10
60.62145093300263
 20
735.7832509158828
 30
0.0
 10
60.62145093300263
 20
735.7832509158828
 30
0.0
 10
62.6565398213838
 20
735.7832509158828
 30
0.0
 10
62.6565398213838
 20
735.7832509158828
 30
0.0
 10
62.6565398213838
 20
735.7832509158828
 30
0.0
 10
62.6565398213838
 20
727.2170000633237
 30
0.0
 10
62.6565398213838
 20
727.2170000633237
 30
0.0
 10
62.6565398213838
 20
724.7583180126533
 30
0.0
 10
63.98602379540969
 20
723.5128620300575
 30
0.0
 10
66.07751503420445
 20
723.5128620300575
 30
0.0
 10
68.17015734137134
 20
723.5128620300575
 30
0.0
 10
69.55604366581306
 20
724.7859436536737
 30
0.0
 10
69.55604366581306
 20
727.2170000633237
 30
0.0
 10
69.55604366581306
 20
727.2170000633237
 30
0.0
 10
69.55604366581306
 20
735.7832509158828
 30
0.0
 10
69.55604366581306
 20
735.7832509158828
 30
0.0
 10
69.55604366581306
 20
735.7832509158828
 30
0.0
 10
71.59113255419167
 20
735.7832509158828
 30
0.0
 10
71.59113255419167
 20
735.7832509158828
 30
0.0
 10
71.59113255419167
 20
735.7832509158828
 30
0.0
 10
71.59113255419167
 20
721.8737406629484
 30
0.0
 10
71.59113255419167
 20
721.8737406629484
 30
0.0
  0
SPLINE
  5
CA
330
C2
100
AcDbEntity
  8
Layer 1
 62
    40
370
    13
100
AcDbSpline
210
0.0
220
0.0
230
1.0
 70
    11
 71
     3
 72
    41
 73
    37
 74
     0
 42
0.0000000001
 43
0.0000000001
 12
1.0
 22
0.0
 32
0.0
 13
1.0
 23
0.0
 33
0.0
 40
0.0
 40
0.0
 40
0.0
 40
0.0
 40
1.0
 40
1.0
 40
1.0
 40
2.0
 40
2.0
 40
2.0
 40
3.0
 40
3.0
 40
3.0
 40
4.0
 40
4.0
 40
4.0
 40
5.0
 40
5.0
 40
5.0
 40
6.0
 40
6.0
 40
6.0
 40
7.0
 40
7.0
 40
7.0
 40
8.0
 40
8.0
 40
8.0
 40
9.0
 40
9.0
 40
9.0
 40
10.0
 40
10.0
 40
10.0
 40
11.0
 40
11.0
 40
11.0
 40
12.0
 40
12.0
 40
12.0
 40
12.0
 10
86.69775391793706
 20
733.8908945060989
 30
0.0
 10
86.69775391793706
 20
733.8908945060989
 30
0.0
 10
85.31186759349725
 20
732.5901872414655
 30
0.0
 10
85.31186759349725
 20
732.5901872414655
 30
0.0
 10
84.2655464399127
 20
733.7481620274993
 30
0.0
 10
83.44598575635685
 20
734.1441295487698
 30
0.0
 10
82.11765285070723
 20
734.1441295487698
 30
0.0
 10
80.76054323566059
 20
734.1441295487698
 30
0.0
 10
79.62904302226896
 20
733.6077316856572
 30
0.0
 10
78.89466139852051
 20
732.5602594636952
 30
0.0
 10
78.24430776620511
 20
731.6555197203326
 30
0.0
 10
77.98992165515693
 20
730.5827239941032
 30
0.0
 10
77.98992165515693
 20
728.8284957894156
 30
0.0
 10
77.98992165515693
 20
727.076569721478
 30
0.0
 10
78.24430776620511
 20
726.0014718584952
 30
0.0
 10
78.89466139852051
 20
725.0967321151361
 30
0.0
 10
79.62904302226896
 20
724.0515620299275
 30
0.0
 10
80.76054323566059
 20
723.5128620300575
 30
0.0
 10
82.11765285070723
 20
723.5128620300575
 30
0.0
 10
83.44598575635685
 20
723.5128620300575
 30
0.0
 10
84.2655464399127
 20
723.9387573290984
 30
0.0
 10
85.31186759349725
 20
725.0967321151361
 30
0.0
 10
85.31186759349725
 20
725.0967321151361
 30
0.0
 10
86.69775391793706
 20
723.7683992094856
 30
0.0
 10
86.69775391793706
 20
723.7683992094856
 30
0.0
 10
85.25546524308335
 20
722.212154765428
 30
0.0
 10
84.03993703826059
 20
721.7033825433323
 30
0.0
 10
82.11765285070723
 20
721.7033825433323
 30
0.0
 10
78.61149857807852
 20
721.7033825433323
 30
0.0
 10
75.95368169840205
 20
724.0791876709446
 30
0.0
 10
75.95368169840205
 20
728.8284957894156
 30
0.0
 10
75.95368169840205
 20
733.5778039078865
 30
0.0
 10
78.61149857807852
 20
735.9536090354957
 30
0.0
 10
82.11765285070723
 20
735.9536090354957
 30
0.0
 10
84.03993703826059
 20
735.9536090354957
 30
0.0
 10
85.25546524308335
 20
735.4448368134032
 30
0.0
 10
86.69775391793706
 20
733.8908945060989
 30
0.0
  0
SPLINE
  5
CB
330
C2
100
AcDbEntity
  8
Layer 1
 62
    40
370
    13
100
AcDbSpline
210
0.0
220
0.0
230
1.0
 70
    11
 71
     3
 72
    53
 73
    49
 74
     0
 42
0.0000000001
 43
0.0000000001
 12
1.0
 22
0.0
 32
0.0
 13
1.0
 23
0.0
 33
0.0
 40
0.0
 40
0.0
 40
0.0
 40
0.0
 40
1.0
 40
1.0
 40
1.0
 40
2.0
 40
2.0
 40
2.0
 40
3.0
 40
3.0
 40
3.0
 40
4.0
 40
4.0
 40
4.0
 40
5.0
 40
5.0
 40
5.0
 40
6.0
 40
6.0
 40
6.0
 40
7.0
 40
7.0
 40
7.0
 40
8.0
 40
8.0
 40
8.0
 40
9.0
 40
9.0
 40
9.0
 40
10.0
 40
10.0
 40
10.0
 40
11.0
 40
11.0
 40
11.0
 40
12.0
 40
12.0
 40
12.0
 40
13.0
 40
13.0
 40
13.0
 40
14.0
 40
14.0
 40
14.0
 40
15.0
 40
15.0
 40
15.0
 40
16.0
 40
16.0
 40
16.0
 40
16.0
 10
92.95381054030283
 20
735.7832509158828
 30
0.0
 10
92.95381054030283
 20
735.7832509158828
 30
0.0
 10
95.92241588144297
 20
735.7832509158828
 30
0.0
 10
95.92241588144297
 20
735.7832509158828
 30
0.0
 10
95.92241588144297
 20
735.7832509158828
 30
0.0
 10
95.92241588144297
 20
734.2293086085747
 30
0.0
 10
95.92241588144297
 20
734.2293086085747
 30
0.0
 10
95.92241588144297
 20
734.2293086085747
 30
0.0
 10
92.95381054030283
 20
734.2293086085747
 30
0.0
 10
92.95381054030283
 20
734.2293086085747
 30
0.0
 10
92.95381054030283
 20
734.2293086085747
 30
0.0
 10
92.95381054030283
 20
725.6630577560194
 30
0.0
 10
92.95381054030283
 20
725.6630577560194
 30
0.0
 10
92.95381054030283
 20
724.362350491386
 30
0.0
 10
93.54776182220655
 20
723.6256667308863
 30
0.0
 10
94.8484690868412
 20
723.6256667308863
 30
0.0
 10
94.8484690868412
 20
723.6256667308863
 30
0.0
 10
95.92241588144297
 20
723.6256667308863
 30
0.0
 10
95.92241588144297
 20
723.6256667308863
 30
0.0
 10
95.92241588144297
 20
723.6256667308863
 30
0.0
 10
95.92241588144297
 20
721.8737406629484
 30
0.0
 10
95.92241588144297
 20
721.8737406629484
 30
0.0
 10
95.92241588144297
 20
721.8737406629484
 30
0.0
 10
94.48012720658959
 20
721.8737406629484
 30
0.0
 10
94.48012720658959
 20
721.8737406629484
 30
0.0
 10
92.10547314735508
 20
721.8737406629484
 30
0.0
 10
90.91757058354825
 20
723.5427898078318
 30
0.0
 10
90.91757058354825
 20
725.6055043372282
 30
0.0
 10
90.91757058354825
 20
725.6055043372282
 30
0.0
 10
90.91757058354825
 20
734.2293086085747
 30
0.0
 10
90.91757058354825
 20
734.2293086085747
 30
0.0
 10
90.91757058354825
 20
734.2293086085747
 30
0.0
 10
89.16449344723503
 20
734.2293086085747
 30
0.0
 10
89.16449344723503
 20
734.2293086085747
 30
0.0
 10
89.16449344723503
 20
734.2293086085747
 30
0.0
 10
89.16449344723503
 20
735.7832509158828
 30
0.0
 10
89.16449344723503
 20
735.7832509158828
 30
0.0
 10
89.16449344723503
 20
735.7832509158828
 30
0.0
 10
90.91757058354825
 20
735.7832509158828
 30
0.0
 10
90.91757058354825
 20
735.7832509158828
 30
0.0
 10
90.91757058354825
 20
735.7832509158828
 30
0.0
 10
90.91757058354825
 20
740.0537145900249
 30
0.0
 10
90.91757058354825
 20
740.0537145900249
 30
0.0
 10
90.91757058354825
 20
740.0537145900249
 30
0.0
 10
92.95381054030283
 20
740.0537145900249
 30
0.0
 10
92.95381054030283
 20
740.0537145900249
 30
0.0
 10
92.95381054030283
 20
740.0537145900249
 30
0.0
 10
92.95381054030283
 20
735.7832509158828
 30
0.0
 10
92.95381054030283
 20
735.7832509158828
 30
0.0
  0
SPLINE
  5
CC
330
C2
100
AcDbEntity
  8
Layer 1
 62
    40
370
    13
100
AcDbSpline
210
0.0
220
0.0
230
1.0
 70
    11
 71
     3
 72
    44
 73
    40
 74
     0
 42
0.0000000001
 43
0.0000000001
 12
1.0
 22
0.0
 32
0.0
 13
1.0
 23
0.0
 33
0.0
 40
0.0
 40
0.0
 40
0.0
 40
0.0
 40
1.0
 40
1.0
 40
1.0
 40
2.0
 40
2.0
 40
2.0
 40
3.0
 40
3.0
 40
3.0
 40
4.0
 40
4.0
 40
4.0
 40
5.0
 40
5.0
 40
5.0
 40
6.0
 40
6.0
 40
6.0
 40
7.0
 40
7.0
 40
7.0
 40
8.0
 40
8.0
 40
8.0
 40
9.0
 40
9.0
 40
9.0
 40
10.0
 40
10.0
 40
10.0
 40
11.0
 40
11.0
 40
11.0
 40
12.0
 40
12.0
 40
12.0
 40
13.0
 40
13.0
 40
13.0
 40
13.0
 10
110.7976725016555
 20
721.8737406629484
 30
0.0
 10
110.7976725016555
 20
721.8737406629484
 30
0.0
 10
108.7902092542944
 20
721.8737406629484
 30
0.0
 10
108.7902092542944
 20
721.8737406629484
 30
0.0
 10
108.7902092542944
 20
721.8737406629484
 30
0.0
 10
108.7902092542944
 20
723.4276829702527
 30
0.0
 10
108.7902092542944
 20
723.4276829702527
 30
0.0
 10
107.8002904511215
 20
722.297333825236
 30
0.0
 10
106.4155551950577
 20
721.7033825433323
 30
0.0
 10
104.8604618193794
 20
721.7033825433323
 30
0.0
 10
103.3617707941121
 20
721.7033825433323
 30
0.0
 10
102.1174658798936
 20
722.1569034833904
 30
0.0
 10
101.2691284869436
 20
723.0040898079653
 30
0.0
 10
100.280360752147
 20
723.9663829701155
 30
0.0
 10
99.82799088046615
 20
725.2947158757694
 30
0.0
 10
99.82799088046615
 20
726.9062116018613
 30
0.0
 10
99.82799088046615
 20
726.9062116018613
 30
0.0
 10
99.82799088046615
 20
735.7832509158828
 30
0.0
 10
99.82799088046615
 20
735.7832509158828
 30
0.0
 10
99.82799088046615
 20
735.7832509158828
 30
0.0
 10
101.8630797688454
 20
735.7832509158828
 30
0.0
 10
101.8630797688454
 20
735.7832509158828
 30
0.0
 10
101.8630797688454
 20
735.7832509158828
 30
0.0
 10
101.8630797688454
 20
727.2170000633237
 30
0.0
 10
101.8630797688454
 20
727.2170000633237
 30
0.0
 10
101.8630797688454
 20
724.7583180126533
 30
0.0
 10
103.1925637428732
 20
723.5128620300575
 30
0.0
 10
105.284054981666
 20
723.5128620300575
 30
0.0
 10
107.3766972888345
 20
723.5128620300575
 30
0.0
 10
108.7625836132743
 20
724.7859436536737
 30
0.0
 10
108.7625836132743
 20
727.2170000633237
 30
0.0
 10
108.7625836132743
 20
727.2170000633237
 30
0.0
 10
108.7625836132743
 20
735.7832509158828
 30
0.0
 10
108.7625836132743
 20
735.7832509158828
 30
0.0
 10
108.7625836132743
 20
735.7832509158828
 30
0.0
 10
110.7976725016555
 20
735.7832509158828
 30
0.0
 10
110.7976725016555
 20
735.7832509158828
 30
0.0
 10
110.7976725016555
 20
735.7832509158828
 30
0.0
 10
110.7976725016555
 20
721.8737406629484
 30
0.0
 10
110.7976725016555
 20
721.8737406629484
 30
0.0
  0
SPLINE
  5
CD
330
C2
100
AcDbEntity
  8
Layer 1
 62
    40
370
    13
100
AcDbSpline
210
0.0
220
0.0
230
1.0
 70
    11
 71
     3
 72
    35
 73
    31
 74
     0
 42
0.0000000001
 43
0.0000000001
 12
1.0
 22
0.0
 32
0.0
 13
1.0
 23
0.0
 33
0.0
 40
0.0
 40
0.0
 40
0.0
 40
0.0
 40
1.0
 40
1.0
 40
1.0
 40
2.0
 40
2.0
 40
2.0
 40
3.0
 40
3.0
 40
3.0
 40
4.0
 40
4.0
 40
4.0
 40
5.0
 40
5.0
 40
5.0
 40
6.0
 40
6.0
 40
6.0
 40
7.0
 40
7.0
 40
7.0
 40
8.0
 40
8.0
 40
8.0
 40
9.0
 40
9.0
 40
9.0
 40
10.0
 40
10.0
 40
10.0
 40
10.0
 10
125.1699122416499
 20
734.6529017708658
 30
0.0
 10
125.1699122416499
 20
734.6529017708658
 30
0.0
 10
123.6712212163848
 20
733.1265851045823
 30
0.0
 10
123.6712212163848
 20
733.1265851045823
 30
0.0
 10
122.9069118148666
 20
733.8908945060989
 30
0.0
 10
122.3405861739823
 20
734.1441295487698
 30
0.0
 10
121.2677904477546
 20
734.1441295487698
 30
0.0
 10
119.2303994226234
 20
734.1441295487698
 30
0.0
 10
117.9319942947429
 20
732.5326338226779
 30
0.0
 10
117.9319942947429
 20
730.4123658744871
 30
0.0
 10
117.9319942947429
 20
730.4123658744871
 30
0.0
 10
117.9319942947429
 20
721.8737406629484
 30
0.0
 10
117.9319942947429
 20
721.8737406629484
 30
0.0
 10
117.9319942947429
 20
721.8737406629484
 30
0.0
 10
115.8946032696098
 20
721.8737406629484
 30
0.0
 10
115.8946032696098
 20
721.8737406629484
 30
0.0
 10
115.8946032696098
 20
721.8737406629484
 30
0.0
 10
115.8946032696098
 20
735.7832509158828
 30
0.0
 10
115.8946032696098
 20
735.7832509158828
 30
0.0
 10
115.8946032696098
 20
735.7832509158828
 30
0.0
 10
117.9319942947429
 20
735.7832509158828
 30
0.0
 10
117.9319942947429
 20
735.7832509158828
 30
0.0
 10
117.9319942947429
 20
735.7832509158828
 30
0.0
 10
117.9319942947429
 20
734.0865761299822
 30
0.0
 10
117.9319942947429
 20
734.0865761299822
 30
0.0
 10
118.6940015595092
 20
735.2468530527699
 30
0.0
 10
120.2203182257941
 20
735.9536090354957
 30
0.0
 10
121.8318139518908
 20
735.9536090354957
 30
0.0
 10
123.1624489942885
 20
735.9536090354957
 30
0.0
 10
124.1799934384812
 20
735.6428205740365
 30
0.0
 10
125.1699122416499
 20
734.6529017708658
 30
0.0
  0
SPLINE
  5
CE
330
C2
100
AcDbEntity
  8
Layer 1
 62
    40
370
    13
100
AcDbSpline
210
0.0
220
0.0
230
1.0
 70
    11
 71
     3
 72
    47
 73
    43
 74
     0
 42
0.0000000001
 43
0.0000000001
 12
1.0
 22
0.0
 32
0.0
 13
1.0
 23
0.0
 33
0.0
 40
0.0
 40
0.0
 40
0.0
 40
0.0
 40
1.0
 40
1.0
 40
1.0
 40
2.0
 40
2.0
 40
2.0
 40
3.0
 40
3.0
 40
3.0
 40
4.0
 40
4.0
 40
4.0
 40
5.0
 40
5.0
 40
5.0
 40
6.0
 40
6.0
 40
6.0
 40
7.0
 40
7.0
 40
7.0
 40
8.0
 40
8.0
 40
8.0
 40
9.0
 40
9.0
 40
9.0
 40
10.0
 40
10.0
 40
10.0
 40
11.0
 40
11.0
 40
11.0
 40
12.0
 40
12.0
 40
12.0
 40
13.0
 40
13.0
 40
13.0
 40
14.0
 40
14.0
 40
14.0
 40
14.0
 10
137.4449054009755
 20
731.3171056178533
 30
0.0
 10
137.4449054009755
 20
731.3171056178533
 30
0.0
 10
137.4449054009755
 20
721.8737406629484
 30
0.0
 10
137.4449054009755
 20
721.8737406629484
 30
0.0
 10
137.4449054009755
 20
721.8737406629484
 30
0.0
 10
135.4098165125963
 20
721.8737406629484
 30
0.0
 10
135.4098165125963
 20
721.8737406629484
 30
0.0
 10
135.4098165125963
 20
721.8737406629484
 30
0.0
 10
135.4098165125963
 20
723.202073568599
 30
0.0
 10
135.4098165125963
 20
723.202073568599
 30
0.0
 10
134.3070930085987
 20
722.0993500646027
 30
0.0
 10
133.2596207866385
 20
721.7033825433323
 30
0.0
 10
131.3948900178741
 20
721.7033825433323
 30
0.0
 10
129.4726058303179
 20
721.7033825433323
 30
0.0
 10
128.425133608358
 20
722.0440987825651
 30
0.0
 10
127.4651425829568
 20
722.9764641669485
 30
0.0
 10
126.7583866002281
 20
723.655594508657
 30
0.0
 10
126.4176703609963
 20
724.7007645938656
 30
0.0
 10
126.4176703609963
 20
725.8034880978619
 30
0.0
 10
126.4176703609963
 20
728.2644722852855
 30
0.0
 10
128.1442729246679
 20
729.8184145925827
 30
0.0
 10
131.2521575392771
 20
729.8184145925827
 30
0.0
 10
131.2521575392771
 20
729.8184145925827
 30
0.0
 10
135.4098165125963
 20
729.8184145925827
 30
0.0
 10
135.4098165125963
 20
729.8184145925827
 30
0.0
 10
135.4098165125963
 20
729.8184145925827
 30
0.0
 10
135.4098165125963
 20
731.1467474982333
 30
0.0
 10
135.4098165125963
 20
731.1467474982333
 30
0.0
 10
135.4098165125963
 20
733.1542107455956
 30
0.0
 10
134.4198977094214
 20
734.2016829675574
 30
0.0
 10
131.8461088211764
 20
734.2016829675574
 30
0.0
 10
130.0941827532414
 20
734.2016829675574
 30
0.0
 10
129.1894430098762
 20
733.7481620274993
 30
0.0
 10
128.3399545485503
 20
732.5901872414655
 30
0.0
 10
128.3399545485503
 20
732.5901872414655
 30
0.0
 10
126.9563703608624
 20
733.8609667283285
 30
0.0
 10
126.9563703608624
 20
733.8609667283285
 30
0.0
 10
128.1718985656877
 20
735.4724624544205
 30
0.0
 10
129.5854105311457
 20
735.9536090354957
 30
0.0
 10
131.8760365989484
 20
735.9536090354957
 30
0.0
 10
135.6354259142487
 20
735.9536090354957
 30
0.0
 10
137.4449054009755
 20
734.3144876683828
 30
0.0
 10
137.4449054009755
 20
731.3171056178533
 30
0.0
  0
SPLINE
  5
CF
330
C2
100
AcDbEntity
  8
Layer 1
 62
    40
370
    13
100
AcDbSpline
210
0.0
220
0.0
230
1.0
 70
    11
 71
     3
 72
    23
 73
    19
 74
     0
 42
0.0000000001
 43
0.0000000001
 12
1.0
 22
0.0
 32
0.0
 13
1.0
 23
0.0
 33
0.0
 40
0.0
 40
0.0
 40
0.0
 40
0.0
 40
1.0
 40
1.0
 40
1.0
 40
2.0
 40
2.0
 40
2.0
 40
3.0
 40
3.0
 40
3.0
 40
4.0
 40
4.0
 40
4.0
 40
5.0
 40
5.0
 40
5.0
 40
6.0
 40
6.0
 40
6.0
 40
6.0
 10
131.5353203597188
 20
728.2920979262992
 30
0.0
 10
129.4426780525506
 20
728.2920979262992
 30
0.0
 10
128.3975079673382
 20
727.4725372427446
 30
0.0
 10
128.3975079673382
 20
725.8311137388823
 30
0.0
 10
128.3975079673382
 20
724.2196180127903
 30
0.0
 10
129.3874267705127
 20
723.4576107480234
 30
0.0
 10
131.6204994195259
 20
723.4576107480234
 30
0.0
 10
132.7807763423142
 20
723.4576107480234
 30
0.0
 10
133.7983207865021
 20
723.5704154488521
 30
0.0
 10
134.7030605298679
 20
724.3899761324033
 30
0.0
 10
135.1842071109425
 20
724.8434970724613
 30
0.0
 10
135.4098165125963
 20
725.633129978249
 30
0.0
 10
135.4098165125963
 20
726.7934069010361
 30
0.0
 10
135.4098165125963
 20
726.7934069010361
 30
0.0
 10
135.4098165125963
 20
728.2920979262992
 30
0.0
 10
135.4098165125963
 20
728.2920979262992
 30
0.0
 10
135.4098165125963
 20
728.2920979262992
 30
0.0
 10
131.5353203597188
 20
728.2920979262992
 30
0.0
 10
131.5353203597188
 20
728.2920979262992
 30
0.0
  0
SPLINE
  5
D0
330
C2
100
AcDbEntity
  8
Layer 1
 62
    40
370
    13
100
AcDbSpline
210
0.0
220
0.0
230
1.0
 70
    11
 71
     3
 72
    29
 73
    25
 74
     0
 42
0.0000000001
 43
0.0000000001
 12
1.0
 22
0.0
 32
0.0
 13
1.0
 23
0.0
 33
0.0
 40
0.0
 40
0.0
 40
0.0
 40
0.0
 40
1.0
 40
1.0
 40
1.0
 40
2.0
 40
2.0
 40
2.0
 40
3.0
 40
3.0
 40
3.0
 40
4.0
 40
4.0
 40
4.0
 40
5.0
 40
5.0
 40
5.0
 40
6.0
 40
6.0
 40
6.0
 40
7.0
 40
7.0
 40
7.0
 40
8.0
 40
8.0
 40
8.0
 40
8.0
 10
144.3812434334306
 20
725.6630577560194
 30
0.0
 10
144.3812434334306
 20
724.3047970725984
 30
0.0
 10
144.834764373487
 20
723.6256667308863
 30
0.0
 10
146.2482763389447
 20
723.6256667308863
 30
0.0
 10
146.2482763389447
 20
723.6256667308863
 30
0.0
 10
147.3509998429448
 20
723.6256667308863
 30
0.0
 10
147.3509998429448
 20
723.6256667308863
 30
0.0
 10
147.3509998429448
 20
723.6256667308863
 30
0.0
 10
147.3509998429448
 20
721.8737406629484
 30
0.0
 10
147.3509998429448
 20
721.8737406629484
 30
0.0
 10
147.3509998429448
 20
721.8737406629484
 30
0.0
 10
145.8799344586957
 20
721.8737406629484
 30
0.0
 10
145.8799344586957
 20
721.8737406629484
 30
0.0
 10
143.448878049045
 20
721.8737406629484
 30
0.0
 10
142.3461545450494
 20
723.4576107480234
 30
0.0
 10
142.3461545450494
 20
725.5778786962113
 30
0.0
 10
142.3461545450494
 20
725.5778786962113
 30
0.0
 10
142.3461545450494
 20
742.0036244186
 30
0.0
 10
142.3461545450494
 20
742.0036244186
 30
0.0
 10
142.3461545450494
 20
742.0036244186
 30
0.0
 10
144.3812434334306
 20
742.0036244186
 30
0.0
 10
144.3812434334306
 20
742.0036244186
 30
0.0
 10
144.3812434334306
 20
742.0036244186
 30
0.0
 10
144.3812434334306
 20
725.6630577560194
 30
0.0
 10
144.3812434334306
 20
725.6630577560194
 30
0.0
  0
SPLINE
  5
D1
330
C2
100
AcDbEntity
  8
Layer 1
 62
    40
370
    13
100
AcDbSpline
210
0.0
220
0.0
230
1.0
 70
    11
 71
     3
 72
    26
 73
    22
 74
     0
 42
0.0000000001
 43
0.0000000001
 12
1.0
 22
0.0
 32
0.0
 13
1.0
 23
0.0
 33
0.0
 40
0.0
 40
0.0
 40
0.0
 40
0.0
 40
1.0
 40
1.0
 40
1.0
 40
2.0
 40
2.0
 40
2.0
 40
3.0
 40
3.0
 40
3.0
 40
4.0
 40
4.0
 40
4.0
 40
5.0
 40
5.0
 40
5.0
 40
6.0
 40
6.0
 40
6.0
 40
7.0
 40
7.0
 40
7.0
 40
7.0
 10
165.7911152229486
 20
742.0036244186
 30
0.0
 10
169.2972694955751
 20
742.0036244186
 30
0.0
 10
171.7283259052251
 20
739.9961611712373
 30
0.0
 10
171.7283259052251
 20
736.6327393772075
 30
0.0
 10
171.7283259052251
 20
734.5124714290199
 30
0.0
 10
170.4575464183625
 20
732.8434222841403
 30
0.0
 10
168.7608716324628
 20
732.2218453612159
 30
0.0
 10
170.6831558200168
 20
731.5150893784904
 30
0.0
 10
172.0414165034346
 20
729.8460402336037
 30
0.0
 10
172.0414165034346
 20
727.4426094649742
 30
0.0
 10
172.0414165034346
 20
723.7960248505027
 30
0.0
 10
169.6080579570371
 20
721.8737406629484
 30
0.0
 10
166.0466524023708
 20
721.8737406629484
 30
0.0
 10
166.0466524023708
 20
721.8737406629484
 30
0.0
 10
158.2147831735608
 20
721.8737406629484
 30
0.0
 10
158.2147831735608
 20
721.8737406629484
 30
0.0
 10
158.2147831735608
 20
721.8737406629484
 30
0.0
 10
158.2147831735608
 20
742.0036244186
 30
0.0
 10
158.2147831735608
 20
742.0036244186
 30
0.0
 10
158.2147831735608
 20
742.0036244186
 30
0.0
 10
165.7911152229486
 20
742.0036244186
 30
0.0
 10
165.7911152229486
 20
742.0036244186
 30
0.0
  0
SPLINE
  5
D2
330
C2
100
AcDbEntity
  8
Layer 1
 62
    40
370
    13
100
AcDbSpline
210
0.0
220
0.0
230
1.0
 70
    11
 71
     3
 72
    20
 73
    16
 74
     0
 42
0.0000000001
 43
0.0000000001
 12
1.0
 22
0.0
 32
0.0
 13
1.0
 23
0.0
 33
0.0
 40
0.0
 40
0.0
 40
0.0
 40
0.0
 40
1.0
 40
1.0
 40
1.0
 40
2.0
 40
2.0
 40
2.0
 40
3.0
 40
3.0
 40
3.0
 40
4.0
 40
4.0
 40
4.0
 40
5.0
 40
5.0
 40
5.0
 40
5.0
 10
160.3626767627646
 20
740.0813402310457
 30
0.0
 10
160.3626767627646
 20
740.0813402310457
 30
0.0
 10
160.3626767627646
 20
733.0989594635615
 30
0.0
 10
160.3626767627646
 20
733.0989594635615
 30
0.0
 10
160.3626767627646
 20
733.0989594635615
 30
0.0
 10
165.6230592400819
 20
733.0989594635615
 30
0.0
 10
165.6230592400819
 20
733.0989594635615
 30
0.0
 10
167.856131889098
 20
733.0989594635615
 30
0.0
 10
169.5804323160167
 20
734.2016829675574
 30
0.0
 10
169.5804323160167
 20
736.605113736187
 30
0.0
 10
169.5804323160167
 20
739.0062423680666
 30
0.0
 10
167.856131889098
 20
740.0813402310457
 30
0.0
 10
165.6230592400819
 20
740.0813402310457
 30
0.0
 10
165.6230592400819
 20
740.0813402310457
 30
0.0
 10
160.3626767627646
 20
740.0813402310457
 30
0.0
 10
160.3626767627646
 20
740.0813402310457
 30
0.0
  0
SPLINE
  5
D3
330
C2
100
AcDbEntity
  8
Layer 1
 62
    40
370
    13
100
AcDbSpline
210
0.0
220
0.0
230
1.0
 70
    11
 71
     3
 72
    20
 73
    16
 74
     0
 42
0.0000000001
 43
0.0000000001
 12
1.0
 22
0.0
 32
0.0
 13
1.0
 23
0.0
 33
0.0
 40
0.0
 40
0.0
 40
0.0
 40
0.0
 40
1.0
 40
1.0
 40
1.0
 40
2.0
 40
2.0
 40
2.0
 40
3.0
 40
3.0
 40
3.0
 40
4.0
 40
4.0
 40
4.0
 40
5.0
 40
5.0
 40
5.0
 40
5.0
 10
160.3626767627646
 20
731.1766752760072
 30
0.0
 10
160.3626767627646
 20
731.1766752760072
 30
0.0
 10
160.3626767627646
 20
723.7960248505027
 30
0.0
 10
160.3626767627646
 20
723.7960248505027
 30
0.0
 10
160.3626767627646
 20
723.7960248505027
 30
0.0
 10
165.8486686417363
 20
723.7960248505027
 30
0.0
 10
165.8486686417363
 20
723.7960248505027
 30
0.0
 10
168.3372784701745
 20
723.7960248505027
 30
0.0
 10
169.8912207774788
 20
725.2371624569782
 30
0.0
 10
169.8912207774788
 20
727.5001628837654
 30
0.0
 10
169.8912207774788
 20
729.7608611737954
 30
0.0
 10
168.3372784701745
 20
731.1766752760072
 30
0.0
 10
165.8486686417363
 20
731.1766752760072
 30
0.0
 10
165.8486686417363
 20
731.1766752760072
 30
0.0
 10
160.3626767627646
 20
731.1766752760072
 30
0.0
 10
160.3626767627646
 20
731.1766752760072
 30
0.0
  0
SPLINE
  5
D4
330
C2
100
AcDbEntity
  8
Layer 1
 62
    40
370
    13
100
AcDbSpline
210
0.0
220
0.0
230
1.0
 70
    11
 71
     3
 72
    35
 73
    31
 74
     0
 42
0.0000000001
 43
0.0000000001
 12
1.0
 22
0.0
 32
0.0
 13
1.0
 23
0.0
 33
0.0
 40
0.0
 40
0.0
 40
0.0
 40
0.0
 40
1.0
 40
1.0
 40
1.0
 40
2.0
 40
2.0
 40
2.0
 40
3.0
 40
3.0
 40
3.0
 40
4.0
 40
4.0
 40
4.0
 40
5.0
 40
5.0
 40
5.0
 40
6.0
 40
6.0
 40
6.0
 40
7.0
 40
7.0
 40
7.0
 40
8.0
 40
8.0
 40
8.0
 40
9.0
 40
9.0
 40
9.0
 40
10.0
 40
10.0
 40
10.0
 40
10.0
 10
186.0176887221643
 20
734.6529017708658
 30
0.0
 10
186.0176887221643
 20
734.6529017708658
 30
0.0
 10
184.5189976968992
 20
733.1265851045823
 30
0.0
 10
184.5189976968992
 20
733.1265851045823
 30
0.0
 10
183.7546882953807
 20
733.8908945060989
 30
0.0
 10
183.1883626544968
 20
734.1441295487698
 30
0.0
 10
182.115566928269
 20
734.1441295487698
 30
0.0
 10
180.0804780398879
 20
734.1441295487698
 30
0.0
 10
178.7797707752574
 20
732.5326338226779
 30
0.0
 10
178.7797707752574
 20
730.4123658744871
 30
0.0
 10
178.7797707752574
 20
730.4123658744871
 30
0.0
 10
178.7797707752574
 20
721.8737406629484
 30
0.0
 10
178.7797707752574
 20
721.8737406629484
 30
0.0
 10
178.7797707752574
 20
721.8737406629484
 30
0.0
 10
176.7423797501243
 20
721.8737406629484
 30
0.0
 10
176.7423797501243
 20
721.8737406629484
 30
0.0
 10
176.7423797501243
 20
721.8737406629484
 30
0.0
 10
176.7423797501243
 20
735.7832509158828
 30
0.0
 10
176.7423797501243
 20
735.7832509158828
 30
0.0
 10
176.7423797501243
 20
735.7832509158828
 30
0.0
 10
178.7797707752574
 20
735.7832509158828
 30
0.0
 10
178.7797707752574
 20
735.7832509158828
 30
0.0
 10
178.7797707752574
 20
735.7832509158828
 30
0.0
 10
178.7797707752574
 20
734.0865761299822
 30
0.0
 10
178.7797707752574
 20
734.0865761299822
 30
0.0
 10
179.5417780400237
 20
735.2468530527699
 30
0.0
 10
181.0680947063085
 20
735.9536090354957
 30
0.0
 10
182.6795904324004
 20
735.9536090354957
 30
0.0
 10
184.0102254748029
 20
735.9536090354957
 30
0.0
 10
185.0277699189911
 20
735.6428205740365
 30
0.0
 10
186.0176887221643
 20
734.6529017708658
 30
0.0
  0
SPLINE
  5
D5
330
C2
100
AcDbEntity
  8
Layer 1
 62
    40
370
    13
100
AcDbSpline
210
0.0
220
0.0
230
1.0
 70
    11
 71
     3
 72
    47
 73
    43
 74
     0
 42
0.0000000001
 43
0.0000000001
 12
1.0
 22
0.0
 32
0.0
 13
1.0
 23
0.0
 33
0.0
 40
0.0
 40
0.0
 40
0.0
 40
0.0
 40
1.0
 40
1.0
 40
1.0
 40
2.0
 40
2.0
 40
2.0
 40
3.0
 40
3.0
 40
3.0
 40
4.0
 40
4.0
 40
4.0
 40
5.0
 40
5.0
 40
5.0
 40
6.0
 40
6.0
 40
6.0
 40
7.0
 40
7.0
 40
7.0
 40
8.0
 40
8.0
 40
8.0
 40
9.0
 40
9.0
 40
9.0
 40
10.0
 40
10.0
 40
10.0
 40
11.0
 40
11.0
 40
11.0
 40
12.0
 40
12.0
 40
12.0
 40
13.0
 40
13.0
 40
13.0
 40
14.0
 40
14.0
 40
14.0
 40
14.0
 10
198.294984018238
 20
731.3171056178533
 30
0.0
 10
198.294984018238
 20
731.3171056178533
 30
0.0
 10
198.294984018238
 20
721.8737406629484
 30
0.0
 10
198.294984018238
 20
721.8737406629484
 30
0.0
 10
198.294984018238
 20
721.8737406629484
 30
0.0
 10
196.259895129861
 20
721.8737406629484
 30
0.0
 10
196.259895129861
 20
721.8737406629484
 30
0.0
 10
196.259895129861
 20
721.8737406629484
 30
0.0
 10
196.259895129861
 20
723.202073568599
 30
0.0
 10
196.259895129861
 20
723.202073568599
 30
0.0
 10
195.1571716258609
 20
722.0993500646027
 30
0.0
 10
194.1096994039004
 20
721.7033825433323
 30
0.0
 10
192.2449686351385
 20
721.7033825433323
 30
0.0
 10
190.3226844475845
 20
721.7033825433323
 30
0.0
 10
189.2752122256243
 20
722.0440987825651
 30
0.0
 10
188.3152212002231
 20
722.9764641669485
 30
0.0
 10
187.6084652174919
 20
723.655594508657
 30
0.0
 10
187.2677489782629
 20
724.7007645938656
 30
0.0
 10
187.2677489782629
 20
725.8034880978619
 30
0.0
 10
187.2677489782629
 20
728.2644722852855
 30
0.0
 10
188.9943515419339
 20
729.8184145925827
 30
0.0
 10
192.1022361565393
 20
729.8184145925827
 30
0.0
 10
192.1022361565393
 20
729.8184145925827
 30
0.0
 10
196.259895129861
 20
729.8184145925827
 30
0.0
 10
196.259895129861
 20
729.8184145925827
 30
0.0
 10
196.259895129861
 20
729.8184145925827
 30
0.0
 10
196.259895129861
 20
731.1467474982333
 30
0.0
 10
196.259895129861
 20
731.1467474982333
 30
0.0
 10
196.259895129861
 20
733.1542107455956
 30
0.0
 10
195.2699763266881
 20
734.2016829675574
 30
0.0
 10
192.6961874384427
 20
734.2016829675574
 30
0.0
 10
190.9442613705039
 20
734.2016829675574
 30
0.0
 10
190.0395216271425
 20
733.7481620274993
 30
0.0
 10
189.1900331658169
 20
732.5901872414655
 30
0.0
 10
189.1900331658169
 20
732.5901872414655
 30
0.0
 10
187.8064489781268
 20
733.8609667283285
 30
0.0
 10
187.8064489781268
 20
733.8609667283285
 30
0.0
 10
189.0219771829499
 20
735.4724624544205
 30
0.0
 10
190.4354891484114
 20
735.9536090354957
 30
0.0
 10
192.7261152162147
 20
735.9536090354957
 30
0.0
 10
196.4855045315108
 20
735.9536090354957
 30
0.0
 10
198.294984018238
 20
734.3144876683828
 30
0.0
 10
198.294984018238
 20
731.3171056178533
 30
0.0
  0
SPLINE
  5
D6
330
C2
100
AcDbEntity
  8
Layer 1
 62
    40
370
    13
100
AcDbSpline
210
0.0
220
0.0
230
1.0
 70
    11
 71
     3
 72
    23
 73
    19
 74
     0
 42
0.0000000001
 43
0.0000000001
 12
1.0
 22
0.0
 32
0.0
 13
1.0
 23
0.0
 33
0.0
 40
0.0
 40
0.0
 40
0.0
 40
0.0
 40
1.0
 40
1.0
 40
1.0
 40
2.0
 40
2.0
 40
2.0
 40
3.0
 40
3.0
 40
3.0
 40
4.0
 40
4.0
 40
4.0
 40
5.0
 40
5.0
 40
5.0
 40
6.0
 40
6.0
 40
6.0
 40
6.0
 10
192.3853989769813
 20
728.2920979262992
 30
0.0
 10
190.2927566698131
 20
728.2920979262992
 30
0.0
 10
189.2475865846042
 20
727.4725372427446
 30
0.0
 10
189.2475865846042
 20
725.8311137388823
 30
0.0
 10
189.2475865846042
 20
724.2196180127903
 30
0.0
 10
190.2375053877771
 20
723.4576107480234
 30
0.0
 10
192.4705780367884
 20
723.4576107480234
 30
0.0
 10
193.6308549595757
 20
723.4576107480234
 30
0.0
 10
194.6483994037684
 20
723.5704154488521
 30
0.0
 10
195.5531391471294
 20
724.3899761324033
 30
0.0
 10
196.0342857282066
 20
724.8434970724613
 30
0.0
 10
196.259895129861
 20
725.633129978249
 30
0.0
 10
196.259895129861
 20
726.7934069010361
 30
0.0
 10
196.259895129861
 20
726.7934069010361
 30
0.0
 10
196.259895129861
 20
728.2920979262992
 30
0.0
 10
196.259895129861
 20
728.2920979262992
 30
0.0
 10
196.259895129861
 20
728.2920979262992
 30
0.0
 10
192.3853989769813
 20
728.2920979262992
 30
0.0
 10
192.3853989769813
 20
728.2920979262992
 30
0.0
  0
SPLINE
  5
D7
330
C2
100
AcDbEntity
  8
Layer 1
 62
    40
370
    13
100
AcDbSpline
210
0.0
220
0.0
230
1.0
 70
    11
 71
     3
 72
    41
 73
    37
 74
     0
 42
0.0000000001
 43
0.0000000001
 12
1.0
 22
0.0
 32
0.0
 13
1.0
 23
0.0
 33
0.0
 40
0.0
 40
0.0
 40
0.0
 40
0.0
 40
1.0
 40
1.0
 40
1.0
 40
2.0
 40
2.0
 40
2.0
 40
3.0
 40
3.0
 40
3.0
 40
4.0
 40
4.0
 40
4.0
 40
5.0
 40
5.0
 40
5.0
 40
6.0
 40
6.0
 40
6.0
 40
7.0
 40
7.0
 40
7.0
 40
8.0
 40
8.0
 40
8.0
 40
9.0
 40
9.0
 40
9.0
 40
10.0
 40
10.0
 40
10.0
 40
11.0
 40
11.0
 40
11.0
 40
12.0
 40
12.0
 40
12.0
 40
12.0
 10
213.2588729033874
 20
733.8908945060989
 30
0.0
 10
213.2588729033874
 20
733.8908945060989
 30
0.0
 10
211.8729865789456
 20
732.5901872414655
 30
0.0
 10
211.8729865789456
 20
732.5901872414655
 30
0.0
 10
210.8278164937374
 20
733.7481620274993
 30
0.0
 10
210.0082558101834
 20
734.1441295487698
 30
0.0
 10
208.6776207677813
 20
734.1441295487698
 30
0.0
 10
207.3216622211116
 20
734.1441295487698
 30
0.0
 10
206.1913130760956
 20
733.6077316856572
 30
0.0
 10
205.4546293155929
 20
732.5602594636952
 30
0.0
 10
204.8054267516535
 20
731.6555197203326
 30
0.0
 10
204.5498895722319
 20
730.5827239941032
 30
0.0
 10
204.5498895722319
 20
728.8284957894156
 30
0.0
 10
204.5498895722319
 20
727.076569721478
 30
0.0
 10
204.8054267516535
 20
726.0014718584952
 30
0.0
 10
205.4546293155929
 20
725.0967321151361
 30
0.0
 10
206.1913130760956
 20
724.0515620299275
 30
0.0
 10
207.3216622211116
 20
723.5128620300575
 30
0.0
 10
208.6776207677813
 20
723.5128620300575
 30
0.0
 10
210.0082558101834
 20
723.5128620300575
 30
0.0
 10
210.8278164937374
 20
723.9387573290984
 30
0.0
 10
211.8729865789456
 20
725.0967321151361
 30
0.0
 10
211.8729865789456
 20
725.0967321151361
 30
0.0
 10
213.2588729033874
 20
723.7683992094856
 30
0.0
 10
213.2588729033874
 20
723.7683992094856
 30
0.0
 10
211.8177352969103
 20
722.212154765428
 30
0.0
 10
210.5999049553349
 20
721.7033825433323
 30
0.0
 10
208.6776207677813
 20
721.7033825433323
 30
0.0
 10
205.171466495151
 20
721.7033825433323
 30
0.0
 10
202.5148006838504
 20
724.0791876709446
 30
0.0
 10
202.5148006838504
 20
728.8284957894156
 30
0.0
 10
202.5148006838504
 20
733.5778039078865
 30
0.0
 10
205.171466495151
 20
735.9536090354957
 30
0.0
 10
208.6776207677813
 20
735.9536090354957
 30
0.0
 10
210.5999049553349
 20
735.9536090354957
 30
0.0
 10
211.8177352969103
 20
735.4448368134032
 30
0.0
 10
213.2588729033874
 20
733.8908945060989
 30
0.0
  0
POLYLINE
  5
D8
330
C2
100
AcDbEntity
  8
Layer 1
 62
    40
370
    13
100
AcDb2dPolyline
 66
     1
 10
0.0
 20
0.0
 30
0.0
  0
VERTEX
  5
D9
330
D8
100
AcDbEntity
  8
Layer 1
 62
    40
370
    13
100
AcDbVertex
100
AcDb2dVertex
 10
219.1753643548998
 20
728.545332968974
 30
0.0
  0
VERTEX
  5
DA
330
D8
100
AcDbEntity
  8
Layer 1
 62
    40
370
    13
100
AcDbVertex
100
AcDb2dVertex
 10
225.4509891396536
 20
735.7832509158828
 30
0.0
  0
VERTEX
  5
DB
330
D8
100
AcDbEntity
  8
Layer 1
 62
    40
370
    13
100
AcDbVertex
100
AcDb2dVertex
 10
227.9948502501312
 20
735.7832509158828
 30
0.0
  0
VERTEX
  5
DC
330
D8
100
AcDbEntity
  8
Layer 1
 62
    40
370
    13
100
AcDbVertex
100
AcDb2dVertex
 10
223.2731677726784
 20
730.4676171565279
 30
0.0
  0
VERTEX
  5
DD
330
D8
100
AcDbEntity
  8
Layer 1
 62
    40
370
    13
100
AcDbVertex
100
AcDb2dVertex
 10
228.8144109336851
 20
721.8737406629484
 30
0.0
  0
VERTEX
  5
DE
330
D8
100
AcDbEntity
  8
Layer 1
 62
    40
370
    13
100
AcDbVertex
100
AcDb2dVertex
 10
226.2981754642273
 20
721.8737406629484
 30
0.0
  0
VERTEX
  5
DF
330
D8
100
AcDbEntity
  8
Layer 1
 62
    40
370
    13
100
AcDbVertex
100
AcDb2dVertex
 10
221.8895835849879
 20
728.998853909032
 30
0.0
  0
VERTEX
  5
E0
330
D8
100
AcDbEntity
  8
Layer 1
 62
    40
370
    13
100
AcDbVertex
100
AcDb2dVertex
 10
219.1753643548998
 20
725.8886671576699
 30
0.0
  0
VERTEX
  5
E1
330
D8
100
AcDbEntity
  8
Layer 1
 62
    40
370
    13
100
AcDbVertex
100
AcDb2dVertex
 10
219.1753643548998
 20
721.8737406629484
 30
0.0
  0
VERTEX
  5
E2
330
D8
100
AcDbEntity
  8
Layer 1
 62
    40
370
    13
100
AcDbVertex
100
AcDb2dVertex
 10
217.137973329767
 20
721.8737406629484
 30
0.0
  0
VERTEX
  5
E3
330
D8
100
AcDbEntity
  8
Layer 1
 62
    40
370
    13
100
AcDbVertex
100
AcDb2dVertex
 10
217.137973329767
 20
742.0036244186
 30
0.0
  0
VERTEX
  5
E4
330
D8
100
AcDbEntity
  8
Layer 1
 62
    40
370
    13
100
AcDbVertex
100
AcDb2dVertex
 10
219.1753643548998
 20
742.0036244186
 30
0.0
  0
VERTEX
  5
E5
330
D8
100
AcDbEntity
  8
Layer 1
 62
    40
370
    13
100
AcDbVertex
100
AcDb2dVertex
 10
219.1753643548998
 20
728.545332968974
 30
0.0
  0
SEQEND
  5
E6
330
D8
100
AcDbEntity
  8
Layer 1
 62
    40
370
    13
  0
SPLINE
  5
E7
330
C2
100
AcDbEntity
  8
Layer 1
 62
    40
370
    13
100
AcDbSpline
210
0.0
220
0.0
230
1.0
 70
    11
 71
     3
 72
    32
 73
    28
 74
     0
 42
0.0000000001
 43
0.0000000001
 12
1.0
 22
0.0
 32
0.0
 13
1.0
 23
0.0
 33
0.0
 40
0.0
 40
0.0
 40
0.0
 40
0.0
 40
1.0
 40
1.0
 40
1.0
 40
2.0
 40
2.0
 40
2.0
 40
3.0
 40
3.0
 40
3.0
 40
4.0
 40
4.0
 40
4.0
 40
5.0
 40
5.0
 40
5.0
 40
6.0
 40
6.0
 40
6.0
 40
7.0
 40
7.0
 40
7.0
 40
8.0
 40
8.0
 40
8.0
 40
9.0
 40
9.0
 40
9.0
 40
9.0
 10
241.8283899902613
 20
729.1968376696656
 30
0.0
 10
241.8283899902613
 20
729.1968376696656
 30
0.0
 10
241.8283899902613
 20
728.2920979262992
 30
0.0
 10
241.8283899902613
 20
728.2920979262992
 30
0.0
 10
241.8283899902613
 20
728.2920979262992
 30
0.0
 10
232.4425784541467
 20
728.2920979262992
 30
0.0
 10
232.4425784541467
 20
728.2920979262992
 30
0.0
 10
232.4425784541467
 20
725.2371624569782
 30
0.0
 10
233.856090419604
 20
723.4852363890403
 30
0.0
 10
236.5426840086762
 20
723.4852363890403
 30
0.0
 10
238.1541797347682
 20
723.4852363890403
 30
0.0
 10
239.0865451191534
 20
723.9663829701155
 30
0.0
 10
240.1892686231493
 20
725.0691064741153
 30
0.0
 10
240.1892686231493
 20
725.0691064741153
 30
0.0
 10
241.5751549475914
 20
723.8535782692938
 30
0.0
 10
241.5751549475914
 20
723.8535782692938
 30
0.0
 10
240.1616429821293
 20
722.440066303832
 30
0.0
 10
238.8333100764793
 20
721.7033825433323
 30
0.0
 10
236.4851305898886
 20
721.7033825433323
 30
0.0
 10
232.7809925566237
 20
721.7033825433323
 30
0.0
 10
230.4074895657655
 20
723.9088295513279
 30
0.0
 10
230.4074895657655
 20
728.8284957894156
 30
0.0
 10
230.4074895657655
 20
733.352194506229
 30
0.0
 10
232.5830087959933
 20
735.9536090354957
 30
0.0
 10
236.1190908463915
 20
735.9536090354957
 30
0.0
 10
239.7380498198448
 20
735.9536090354957
 30
0.0
 10
241.8283899902613
 20
733.3798201472497
 30
0.0
 10
241.8283899902613
 20
729.1968376696656
 30
0.0
  0
SPLINE
  5
E8
330
C2
100
AcDbEntity
  8
Layer 1
 62
    40
370
    13
100
AcDbSpline
210
0.0
220
0.0
230
1.0
 70
    11
 71
     3
 72
    20
 73
    16
 74
     0
 42
0.0000000001
 43
0.0000000001
 12
1.0
 22
0.0
 32
0.0
 13
1.0
 23
0.0
 33
0.0
 40
0.0
 40
0.0
 40
0.0
 40
0.0
 40
1.0
 40
1.0
 40
1.0
 40
2.0
 40
2.0
 40
2.0
 40
3.0
 40
3.0
 40
3.0
 40
4.0
 40
4.0
 40
4.0
 40
5.0
 40
5.0
 40
5.0
 40
5.0
 10
232.8661716164353
 20
732.1366663014074
 30
0.0
 10
232.5277575139541
 20
731.4022846776613
 30
0.0
 10
232.500131872934
 20
730.9487637376033
 30
0.0
 10
232.4425784541467
 20
729.8184145925827
 30
0.0
 10
232.4425784541467
 20
729.8184145925827
 30
0.0
 10
239.8209267429006
 20
729.8184145925827
 30
0.0
 10
239.8209267429006
 20
729.8184145925827
 30
0.0
 10
239.7380498198448
 20
730.9487637376033
 30
0.0
 10
239.7081220420731
 20
731.4022846776613
 30
0.0
 10
239.3697079395954
 20
732.1366663014074
 30
0.0
 10
238.7757566576917
 20
733.4097479250237
 30
0.0
 10
237.6154797349043
 20
734.2293086085747
 30
0.0
 10
236.1190908463915
 20
734.2293086085747
 30
0.0
 10
234.6203998211226
 20
734.2293086085747
 30
0.0
 10
233.4601228983349
 20
733.4097479250237
 30
0.0
 10
232.8661716164353
 20
732.1366663014074
 30
0.0
  0
SPLINE
  5
E9
330
C2
100
AcDbEntity
  8
Layer 1
 62
    40
370
    13
100
AcDbSpline
210
0.0
220
0.0
230
1.0
 70
    11
 71
     3
 72
    53
 73
    49
 74
     0
 42
0.0000000001
 43
0.0000000001
 12
1.0
 22
0.0
 32
0.0
 13
1.0
 23
0.0
 33
0.0
 40
0.0
 40
0.0
 40
0.0
 40
0.0
 40
1.0
 40
1.0
 40
1.0
 40
2.0
 40
2.0
 40
2.0
 40
3.0
 40
3.0
 40
3.0
 40
4.0
 40
4.0
 40
4.0
 40
5.0
 40
5.0
 40
5.0
 40
6.0
 40
6.0
 40
6.0
 40
7.0
 40
7.0
 40
7.0
 40
8.0
 40
8.0
 40
8.0
 40
9.0
 40
9.0
 40
9.0
 40
10.0
 40
10.0
 40
10.0
 40
11.0
 40
11.0
 40
11.0
 40
12.0
 40
12.0
 40
12.0
 40
13.0
 40
13.0
 40
13.0
 40
14.0
 40
14.0
 40
14.0
 40
15.0
 40
15.0
 40
15.0
 40
16.0
 40
16.0
 40
16.0
 40
16.0
 10
248.5391186210602
 20
735.7832509158828
 30
0.0
 10
248.5391186210602
 20
735.7832509158828
 30
0.0
 10
251.5065728938263
 20
735.7832509158828
 30
0.0
 10
251.5065728938263
 20
735.7832509158828
 30
0.0
 10
251.5065728938263
 20
735.7832509158828
 30
0.0
 10
251.5065728938263
 20
734.2293086085747
 30
0.0
 10
251.5065728938263
 20
734.2293086085747
 30
0.0
 10
251.5065728938263
 20
734.2293086085747
 30
0.0
 10
248.5391186210602
 20
734.2293086085747
 30
0.0
 10
248.5391186210602
 20
734.2293086085747
 30
0.0
 10
248.5391186210602
 20
734.2293086085747
 30
0.0
 10
248.5391186210602
 20
725.6630577560194
 30
0.0
 10
248.5391186210602
 20
725.6630577560194
 30
0.0
 10
248.5391186210602
 20
724.362350491386
 30
0.0
 10
249.1330699029636
 20
723.6256667308863
 30
0.0
 10
250.4337771675982
 20
723.6256667308863
 30
0.0
 10
250.4337771675982
 20
723.6256667308863
 30
0.0
 10
251.5065728938263
 20
723.6256667308863
 30
0.0
 10
251.5065728938263
 20
723.6256667308863
 30
0.0
 10
251.5065728938263
 20
723.6256667308863
 30
0.0
 10
251.5065728938263
 20
721.8737406629484
 30
0.0
 10
251.5065728938263
 20
721.8737406629484
 30
0.0
 10
251.5065728938263
 20
721.8737406629484
 30
0.0
 10
250.0654352873485
 20
721.8737406629484
 30
0.0
 10
250.0654352873485
 20
721.8737406629484
 30
0.0
 10
247.6896301597342
 20
721.8737406629484
 30
0.0
 10
246.5040297326829
 20
723.5427898078318
 30
0.0
 10
246.5040297326829
 20
725.6055043372282
 30
0.0
 10
246.5040297326829
 20
725.6055043372282
 30
0.0
 10
246.5040297326829
 20
734.2293086085747
 30
0.0
 10
246.5040297326829
 20
734.2293086085747
 30
0.0
 10
246.5040297326829
 20
734.2293086085747
 30
0.0
 10
244.749801527992
 20
734.2293086085747
 30
0.0
 10
244.749801527992
 20
734.2293086085747
 30
0.0
 10
244.749801527992
 20
734.2293086085747
 30
0.0
 10
244.749801527992
 20
735.7832509158828
 30
0.0
 10
244.749801527992
 20
735.7832509158828
 30
0.0
 10
244.749801527992
 20
735.7832509158828
 30
0.0
 10
246.5040297326829
 20
735.7832509158828
 30
0.0
 10
246.5040297326829
 20
735.7832509158828
 30
0.0
 10
246.5040297326829
 20
735.7832509158828
 30
0.0
 10
246.5040297326829
 20
740.0537145900249
 30
0.0
 10
246.5040297326829
 20
740.0537145900249
 30
0.0
 10
246.5040297326829
 20
740.0537145900249
 30
0.0
 10
248.5391186210602
 20
740.0537145900249
 30
0.0
 10
248.5391186210602
 20
740.0537145900249
 30
0.0
 10
248.5391186210602
 20
740.0537145900249
 30
0.0
 10
248.5391186210602
 20
735.7832509158828
 30
0.0
 10
248.5391186210602
 20
735.7832509158828
 30
0.0
  0
SPLINE
  5
EA
330
C2
100
AcDbEntity
  8
Layer 1
 62
    40
370
    13
100
AcDbSpline
210
0.0
220
0.0
230
1.0
 70
    11
 71
     3
 72
    53
 73
    49
 74
     0
 42
0.0000000001
 43
0.0000000001
 12
1.0
 22
0.0
 32
0.0
 13
1.0
 23
0.0
 33
0.0
 40
0.0
 40
0.0
 40
0.0
 40
0.0
 40
1.0
 40
1.0
 40
1.0
 40
2.0
 40
2.0
 40
2.0
 40
3.0
 40
3.0
 40
3.0
 40
4.0
 40
4.0
 40
4.0
 40
5.0
 40
5.0
 40
5.0
 40
6.0
 40
6.0
 40
6.0
 40
7.0
 40
7.0
 40
7.0
 40
8.0
 40
8.0
 40
8.0
 40
9.0
 40
9.0
 40
9.0
 40
10.0
 40
10.0
 40
10.0
 40
11.0
 40
11.0
 40
11.0
 40
12.0
 40
12.0
 40
12.0
 40
13.0
 40
13.0
 40
13.0
 40
14.0
 40
14.0
 40
14.0
 40
15.0
 40
15.0
 40
15.0
 40
16.0
 40
16.0
 40
16.0
 40
16.0
 10
264.856663916128
 20
734.4549180102323
 30
0.0
 10
264.856663916128
 20
734.4549180102323
 30
0.0
 10
263.5283310104774
 20
733.1265851045823
 30
0.0
 10
263.5283310104774
 20
733.1265851045823
 30
0.0
 10
262.5384122073052
 20
733.8908945060989
 30
0.0
 10
261.2653305836903
 20
734.2293086085747
 30
0.0
 10
259.8241929772125
 20
734.2293086085747
 30
0.0
 10
257.7891040888359
 20
734.2293086085747
 30
0.0
 10
256.7140062258562
 20
733.3798201472497
 30
0.0
 10
256.7140062258562
 20
731.9386825407742
 30
0.0
 10
256.7140062258562
 20
730.6955286949322
 30
0.0
 10
257.4783156273745
 20
730.0739517720114
 30
0.0
 10
259.2026160542932
 20
729.9035936523911
 30
0.0
 10
259.2026160542932
 20
729.9035936523911
 30
0.0
 10
261.3781352845172
 20
729.7056098917575
 30
0.0
 10
261.3781352845172
 20
729.7056098917575
 30
0.0
 10
263.8114938309197
 20
729.4800004901069
 30
0.0
 10
265.4782408390474
 20
728.5752607467408
 30
0.0
 10
265.4782408390474
 20
725.9462205764611
 30
0.0
 10
265.4782408390474
 20
723.2596269873898
 30
0.0
 10
263.217542549016
 20
721.7033825433323
 30
0.0
 10
259.8241929772125
 20
721.7033825433323
 30
0.0
 10
257.4483878496024
 20
721.7033825433323
 30
0.0
 10
255.6112827218558
 20
722.2420825431949
 30
0.0
 10
254.1125916965908
 20
723.7108457906946
 30
0.0
 10
254.1125916965908
 20
723.7108457906946
 30
0.0
 10
255.470852380013
 20
725.0691064741153
 30
0.0
 10
255.470852380013
 20
725.0691064741153
 30
0.0
 10
256.5436481062411
 20
723.9387573290984
 30
0.0
 10
258.0699647725256
 20
723.4576107480234
 30
0.0
 10
259.7965673361973
 20
723.4576107480234
 30
0.0
 10
262.1148190450159
 20
723.4576107480234
 30
0.0
 10
263.4984032327058
 20
724.2771714315779
 30
0.0
 10
263.4984032327058
 20
725.9162927986903
 30
0.0
 10
263.4984032327058
 20
727.1617487812861
 30
0.0
 10
262.8215750277465
 20
727.8109513452242
 30
0.0
 10
261.1801515238829
 20
727.9513816870699
 30
0.0
 10
261.1801515238829
 20
727.9513816870699
 30
0.0
 10
258.8918275928318
 20
728.1493654477032
 30
0.0
 10
258.8918275928318
 20
728.1493654477032
 30
0.0
 10
256.1776083627398
 20
728.3772769861075
 30
0.0
 10
254.7341686195143
 20
729.5651795499153
 30
0.0
 10
254.7341686195143
 20
731.8834312587366
 30
0.0
 10
254.7341686195143
 20
734.4272923692118
 30
0.0
 10
256.8544365676984
 20
735.9536090354957
 30
0.0
 10
259.8518186182324
 20
735.9536090354957
 30
0.0
 10
261.8592818655937
 20
735.9536090354957
 30
0.0
 10
263.5835822925131
 20
735.4724624544205
 30
0.0
 10
264.856663916128
 20
734.4549180102323
 30
0.0
  0
ENDBLK
  5
C5
330
C2
100
AcDbEntity
  8
0
100
AcDbBlockEnd
  0
BLOCK
  5
ED
330
EB
100
AcDbEntity
  8
0
100
AcDbBlockBegin
  2
block 5
 70
     0
 10
0.0
 20
0.0
 30
0.0
  3
block 5
  1

  0
SPLINE
  5
EF
330
EB
100
AcDbEntity
  8
Layer 1
 62
    40
370
    13
100
AcDbSpline
210
0.0
220
0.0
230
1.0
 70
    11
 71
     3
 72
    26
 73
    22
 74
     0
 42
0.0000000001
 43
0.0000000001
 12
1.0
 22
0.0
 32
0.0
 13
1.0
 23
0.0
 33
0.0
 40
0.0
 40
0.0
 40
0.0
 40
0.0
 40
1.0
 40
1.0
 40
1.0
 40
2.0
 40
2.0
 40
2.0
 40
3.0
 40
3.0
 40
3.0
 40
4.0
 40
4.0
 40
4.0
 40
5.0
 40
5.0
 40
5.0
 40
6.0
 40
6.0
 40
6.0
 40
7.0
 40
7.0
 40
7.0
 40
7.0
 10
29.11846380565441
 20
711.0572006143365
 30
0.0
 10
32.66140000268535
 20
711.0572006143365
 30
0.0
 10
35.11861435753979
 20
709.0285561378471
 30
0.0
 10
35.11861435753979
 20
705.6284191486798
 30
0.0
 10
35.11861435753979
 20
703.4853975020801
 30
0.0
 10
33.83290472244455
 20
701.799540026373
 30
0.0
 10
32.11862520898423
 20
701.1709823550892
 30
0.0
 10
34.06148680789088
 20
700.4566418062227
 30
0.0
 10
35.43297932056884
 20
698.7709565852899
 30
0.0
 10
35.43297932056884
 20
696.3421642681888
 30
0.0
 10
35.43297932056884
 20
692.65625660852
 30
0.0
 10
32.97576496571439
 20
690.7133950096134
 30
0.0
 10
29.37564018362831
 20
690.7133950096134
 30
0.0
 10
29.37564018362831
 20
690.7133950096134
 30
0.0
 10
21.46087781581534
 20
690.7133950096134
 30
0.0
 10
21.46087781581534
 20
690.7133950096134
 30
0.0
 10
21.46087781581534
 20
690.7133950096134
 30
0.0
 10
21.46087781581534
 20
711.0572006143365
 30
0.0
 10
21.46087781581534
 20
711.0572006143365
 30
0.0
 10
21.46087781581534
 20
711.0572006143365
 30
0.0
 10
29.11846380565441
 20
711.0572006143365
 30
0.0
 10
29.11846380565441
 20
711.0572006143365
 30
0.0
  0
SPLINE
  5
F0
330
EB
100
AcDbEntity
  8
Layer 1
 62
    40
370
    13
100
AcDbSpline
210
0.0
220
0.0
230
1.0
 70
    11
 71
     3
 72
    20
 73
    16
 74
     0
 42
0.0000000001
 43
0.0000000001
 12
1.0
 22
0.0
 32
0.0
 13
1.0
 23
0.0
 33
0.0
 40
0.0
 40
0.0
 40
0.0
 40
0.0
 40
1.0
 40
1.0
 40
1.0
 40
2.0
 40
2.0
 40
2.0
 40
3.0
 40
3.0
 40
3.0
 40
4.0
 40
4.0
 40
4.0
 40
5.0
 40
5.0
 40
5.0
 40
5.0
 10
23.63249375494257
 20
709.1141667606555
 30
0.0
 10
23.63249375494257
 20
709.1141667606555
 30
0.0
 10
23.63249375494257
 20
702.056716404347
 30
0.0
 10
23.63249375494257
 20
702.056716404347
 30
0.0
 10
23.63249375494257
 20
702.056716404347
 30
0.0
 10
28.94689805048897
 20
702.056716404347
 30
0.0
 10
28.94689805048897
 20
702.056716404347
 30
0.0
 10
31.20429686719893
 20
702.056716404347
 30
0.0
 10
32.94717067318682
 20
703.171032539051
 30
0.0
 10
32.94717067318682
 20
705.5998248561522
 30
0.0
 10
32.94717067318682
 20
708.0284449184791
 30
0.0
 10
31.20429686719893
 20
709.1141667606555
 30
0.0
 10
28.94689805048897
 20
709.1141667606555
 30
0.0
 10
28.94689805048897
 20
709.1141667606555
 30
0.0
 10
23.63249375494257
 20
709.1141667606555
 30
0.0
 10
23.63249375494257
 20
709.1141667606555
 30
0.0
  0
SPLINE
  5
F1
330
EB
100
AcDbEntity
  8
Layer 1
 62
    40
370
    13
100
AcDbSpline
210
0.0
220
0.0
230
1.0
 70
    11
 71
     3
 72
    20
 73
    16
 74
     0
 42
0.0000000001
 43
0.0000000001
 12
1.0
 22
0.0
 32
0.0
 13
1.0
 23
0.0
 33
0.0
 40
0.0
 40
0.0
 40
0.0
 40
0.0
 40
1.0
 40
1.0
 40
1.0
 40
2.0
 40
2.0
 40
2.0
 40
3.0
 40
3.0
 40
3.0
 40
4.0
 40
4.0
 40
4.0
 40
5.0
 40
5.0
 40
5.0
 40
5.0
 10
23.63249375494257
 20
700.1138548054403
 30
0.0
 10
23.63249375494257
 20
700.1138548054403
 30
0.0
 10
23.63249375494257
 20
692.65625660852
 30
0.0
 10
23.63249375494257
 20
692.65625660852
 30
0.0
 10
23.63249375494257
 20
692.65625660852
 30
0.0
 10
29.1754801359353
 20
692.65625660852
 30
0.0
 10
29.1754801359353
 20
692.65625660852
 30
0.0
 10
31.68988307584489
 20
692.65625660852
 30
0.0
 10
33.2613633814416
 20
694.1135319987807
 30
0.0
 10
33.2613633814416
 20
696.399352853244
 30
0.0
 10
33.2613633814416
 20
698.6851737077072
 30
0.0
 10
31.68988307584489
 20
700.1138548054403
 30
0.0
 10
29.1754801359353
 20
700.1138548054403
 30
0.0
 10
29.1754801359353
 20
700.1138548054403
 30
0.0
 10
23.63249375494257
 20
700.1138548054403
 30
0.0
 10
23.63249375494257
 20
700.1138548054403
 30
0.0
  0
SPLINE
  5
F2
330
EB
100
AcDbEntity
  8
Layer 1
 62
    40
370
    13
100
AcDbSpline
210
0.0
220
0.0
230
1.0
 70
    11
 71
     3
 72
    29
 73
    25
 74
     0
 42
0.0000000001
 43
0.0000000001
 12
1.0
 22
0.0
 32
0.0
 13
1.0
 23
0.0
 33
0.0
 40
0.0
 40
0.0
 40
0.0
 40
0.0
 40
1.0
 40
1.0
 40
1.0
 40
2.0
 40
2.0
 40
2.0
 40
3.0
 40
3.0
 40
3.0
 40
4.0
 40
4.0
 40
4.0
 40
5.0
 40
5.0
 40
5.0
 40
6.0
 40
6.0
 40
6.0
 40
7.0
 40
7.0
 40
7.0
 40
8.0
 40
8.0
 40
8.0
 40
8.0
 10
39.06324868815086
 20
696.3135699756613
 30
0.0
 10
39.06324868815086
 20
698.6851737077072
 30
0.0
 10
40.40614690830125
 20
700.2852483058315
 30
0.0
 10
42.12042642176156
 20
701.2567652326719
 30
0.0
 10
40.52035182363728
 20
702.1710935744572
 30
0.0
 10
39.46322427398836
 20
703.6567910024712
 30
0.0
 10
39.46322427398836
 20
705.7712183565434
 30
0.0
 10
39.46322427398836
 20
708.9427732602643
 30
0.0
 10
41.83482800603435
 20
711.2285941147276
 30
0.0
 10
45.06339924003623
 20
711.2285941147276
 30
0.0
 10
48.29214272881239
 20
711.2285941147276
 30
0.0
 10
50.66374646085837
 20
708.9427732602643
 30
0.0
 10
50.66374646085837
 20
705.7712183565434
 30
0.0
 10
50.66374646085837
 20
703.6567910024712
 30
0.0
 10
49.63504094896277
 20
702.1710935744572
 30
0.0
 10
48.03496635083848
 20
701.2567652326719
 30
0.0
 10
49.74941811907306
 20
700.2852483058315
 30
0.0
 10
51.06372204669588
 20
698.6851737077072
 30
0.0
 10
51.06372204669588
 20
696.3135699756613
 30
0.0
 10
51.06372204669588
 20
692.8850109487406
 30
0.0
 10
48.43511419145025
 20
690.5420015092221
 30
0.0
 10
45.06339924003623
 20
690.5420015092221
 30
0.0
 10
41.69185654339648
 20
690.5420015092221
 30
0.0
 10
39.06324868815086
 20
692.8850109487406
 30
0.0
 10
39.06324868815086
 20
696.3135699756613
 30
0.0
  0
SPLINE
  5
F3
330
EB
100
AcDbEntity
  8
Layer 1
 62
    40
370
    13
100
AcDbSpline
210
0.0
220
0.0
230
1.0
 70
    11
 71
     3
 72
    17
 73
    13
 74
     0
 42
0.0000000001
 43
0.0000000001
 12
1.0
 22
0.0
 32
0.0
 13
1.0
 23
0.0
 33
0.0
 40
0.0
 40
0.0
 40
0.0
 40
0.0
 40
1.0
 40
1.0
 40
1.0
 40
2.0
 40
2.0
 40
2.0
 40
3.0
 40
3.0
 40
3.0
 40
4.0
 40
4.0
 40
4.0
 40
4.0
 10
49.00648327767894
 20
696.3421642681888
 30
0.0
 10
49.00648327767894
 20
698.5993908301244
 30
0.0
 10
47.29220376421862
 20
700.3138425983591
 30
0.0
 10
45.06339924003623
 20
700.3138425983591
 30
0.0
 10
42.83476697062812
 20
700.3138425983591
 30
0.0
 10
41.1204874571678
 20
698.5993908301244
 30
0.0
 10
41.1204874571678
 20
696.3421642681888
 30
0.0
 10
41.1204874571678
 20
694.0849377062531
 30
0.0
 10
42.83476697062812
 20
692.3706581927928
 30
0.0
 10
45.06339924003623
 20
692.3706581927928
 30
0.0
 10
47.29220376421862
 20
692.3706581927928
 30
0.0
 10
49.00648327767894
 20
694.0849377062531
 30
0.0
 10
49.00648327767894
 20
696.3421642681888
 30
0.0
  0
SPLINE
  5
F4
330
EB
100
AcDbEntity
  8
Layer 1
 62
    40
370
    13
100
AcDbSpline
210
0.0
220
0.0
230
1.0
 70
    11
 71
     3
 72
    17
 73
    13
 74
     0
 42
0.0000000001
 43
0.0000000001
 12
1.0
 22
0.0
 32
0.0
 13
1.0
 23
0.0
 33
0.0
 40
0.0
 40
0.0
 40
0.0
 40
0.0
 40
1.0
 40
1.0
 40
1.0
 40
2.0
 40
2.0
 40
2.0
 40
3.0
 40
3.0
 40
3.0
 40
4.0
 40
4.0
 40
4.0
 40
4.0
 10
48.60650769184143
 20
705.7426240640158
 30
0.0
 10
48.60650769184143
 20
707.8570514180878
 30
0.0
 10
47.14923230158075
 20
709.399937431157
 30
0.0
 10
45.06339924003623
 20
709.399937431157
 30
0.0
 10
42.97756617849172
 20
709.399937431157
 30
0.0
 10
41.5204630430053
 20
707.8570514180878
 30
0.0
 10
41.5204630430053
 20
705.7426240640158
 30
0.0
 10
41.5204630430053
 20
703.5997746721904
 30
0.0
 10
42.97756617849172
 20
702.1139049894022
 30
0.0
 10
45.06339924003623
 20
702.1139049894022
 30
0.0
 10
47.14923230158075
 20
702.1139049894022
 30
0.0
 10
48.60650769184143
 20
703.5997746721904
 30
0.0
 10
48.60650769184143
 20
705.7426240640158
 30
0.0
  0
SPLINE
  5
F5
330
EB
100
AcDbEntity
  8
Layer 1
 62
    40
370
    13
100
AcDbSpline
210
0.0
220
0.0
230
1.0
 70
    11
 71
     3
 72
    62
 73
    58
 74
     0
 42
0.0000000001
 43
0.0000000001
 12
1.0
 22
0.0
 32
0.0
 13
1.0
 23
0.0
 33
0.0
 40
0.0
 40
0.0
 40
0.0
 40
0.0
 40
1.0
 40
1.0
 40
1.0
 40
2.0
 40
2.0
 40
2.0
 40
3.0
 40
3.0
 40
3.0
 40
4.0
 40
4.0
 40
4.0
 40
5.0
 40
5.0
 40
5.0
 40
6.0
 40
6.0
 40
6.0
 40
7.0
 40
7.0
 40
7.0
 40
8.0
 40
8.0
 40
8.0
 40
9.0
 40
9.0
 40
9.0
 40
10.0
 40
10.0
 40
10.0
 40
11.0
 40
11.0
 40
11.0
 40
12.0
 40
12.0
 40
12.0
 40
13.0
 40
13.0
 40
13.0
 40
14.0
 40
14.0
 40
14.0
 40
15.0
 40
15.0
 40
15.0
 40
16.0
 40
16.0
 40
16.0
 40
17.0
 40
17.0
 40
17.0
 40
18.0
 40
18.0
 40
18.0
 40
19.0
 40
19.0
 40
19.0
 40
19.0
 10
55.95058999252277
 20
691.9991046447086
 30
0.0
 10
55.06485594326504
 20
692.913432986494
 30
0.0
 10
54.63628606489996
 20
694.0849377062531
 30
0.0
 10
54.52190889478966
 20
695.5422130965138
 30
0.0
 10
54.52190889478966
 20
695.5422130965138
 30
0.0
 10
56.5791476638066
 20
695.5422130965138
 30
0.0
 10
56.5791476638066
 20
695.5422130965138
 30
0.0
 10
56.83632404178051
 20
693.5135686200244
 30
0.0
 10
57.89345159142942
 20
692.3706581927928
 30
0.0
 10
60.03647323802908
 20
692.3706581927928
 30
0.0
 10
61.0365844573971
 20
692.3706581927928
 30
0.0
 10
61.95091279918241
 20
692.7134451935751
 30
0.0
 10
62.55087617793868
 20
693.3135808271056
 30
0.0
 10
63.60817598236185
 20
694.3707083767546
 30
0.0
 10
63.66519231264273
 20
695.9993772674064
 30
0.0
 10
63.66519231264273
 20
697.4566526576671
 30
0.0
 10
63.66519231264273
 20
699.9424613050492
 30
0.0
 10
63.17943384922251
 20
702.3710813673761
 30
0.0
 10
60.23646103094783
 20
702.3710813673761
 30
0.0
 10
58.46499293243237
 20
702.3710813673761
 30
0.0
 10
57.26489392014558
 20
701.571130195701
 30
0.0
 10
56.86491833430808
 20
700.3710311834142
 30
0.0
 10
56.86491833430808
 20
700.3710311834142
 30
0.0
 10
55.00766735820989
 20
700.3710311834142
 30
0.0
 10
55.00766735820989
 20
700.3710311834142
 30
0.0
 10
55.00766735820989
 20
700.3710311834142
 30
0.0
 10
55.00766735820989
 20
711.0572006143365
 30
0.0
 10
55.00766735820989
 20
711.0572006143365
 30
0.0
 10
55.00766735820989
 20
711.0572006143365
 30
0.0
 10
65.2938612032946
 20
711.0572006143365
 30
0.0
 10
65.2938612032946
 20
711.0572006143365
 30
0.0
 10
65.2938612032946
 20
711.0572006143365
 30
0.0
 10
65.2938612032946
 20
709.2285439307658
 30
0.0
 10
65.2938612032946
 20
709.2285439307658
 30
0.0
 10
65.2938612032946
 20
709.2285439307658
 30
0.0
 10
56.86491833430808
 20
709.2285439307658
 30
0.0
 10
56.86491833430808
 20
709.2285439307658
 30
0.0
 10
56.86491833430808
 20
709.2285439307658
 30
0.0
 10
56.86491833430808
 20
702.7710569532135
 30
0.0
 10
56.86491833430808
 20
702.7710569532135
 30
0.0
 10
57.66504176075735
 20
703.6567910024712
 30
0.0
 10
58.92215710332502
 20
704.171143758419
 30
0.0
 10
60.52223170144931
 20
704.171143758419
 30
0.0
 10
62.03652342199087
 20
704.171143758419
 30
0.0
 10
63.23662243427766
 20
703.6853852949988
 30
0.0
 10
64.03674586072692
 20
702.8854341233238
 30
0.0
 10
65.52244328874092
 20
701.3995644405355
 30
0.0
 10
65.72243108165968
 20
699.3709199640462
 30
0.0
 10
65.72243108165968
 20
697.4566526576671
 30
0.0
 10
65.72243108165968
 20
695.4278359264035
 30
0.0
 10
65.55103758126849
 20
693.5135686200244
 30
0.0
 10
64.09376219100781
 20
692.0562932297637
 30
0.0
 10
63.1510118114692
 20
691.1133705954509
 30
0.0
 10
61.83653562907212
 20
690.5420015092221
 30
0.0
 10
60.03647323802908
 20
690.5420015092221
 30
0.0
 10
58.26500513951361
 20
690.5420015092221
 30
0.0
 10
56.83632404178051
 20
691.1133705954509
 30
0.0
 10
55.95058999252277
 20
691.9991046447086
 30
0.0
  0
ENDBLK
  5
EE
330
EB
100
AcDbEntity
  8
0
100
AcDbBlockEnd
  0
BLOCK
  5
F8
330
F6
100
AcDbEntity
  8
0
100
AcDbBlockBegin
  2
block 6
 70
     0
 10
0.0
 20
0.0
 30
0.0
  3
block 6
  1

  0
POLYLINE
  5
FA
330
F6
100
AcDbEntity
  8
Layer 1
 62
    40
370
    13
100
AcDb2dPolyline
 66
     1
 10
0.0
 20
0.0
 30
0.0
  0
VERTEX
  5
FB
330
FA
100
AcDbEntity
  8
Layer 1
 62
    40
370
    13
100
AcDbVertex
100
AcDb2dVertex
 10
69.01804394881516
 20
604.4452822780053
 30
0.0
  0
VERTEX
  5
FC
330
FA
100
AcDbEntity
  8
Layer 1
 62
    40
370
    13
100
AcDbVertex
100
AcDb2dVertex
 10
19.01777981472234
 20
604.4452822780053
 30
0.0
  0
VERTEX
  5
FD
330
FA
100
AcDbEntity
  8
Layer 1
 62
    40
370
    13
100
AcDbVertex
100
AcDb2dVertex
 10
19.01777981472234
 20
289.4454527465664
 30
0.0
  0
VERTEX
  5
FE
330
FA
100
AcDbEntity
  8
Layer 1
 62
    40
370
    13
100
AcDbVertex
100
AcDb2dVertex
 10
69.01804394881516
 20
289.4454527465664
 30
0.0
  0
VERTEX
  5
FF
330
FA
100
AcDbEntity
  8
Layer 1
 62
    40
370
    13
100
AcDbVertex
100
AcDb2dVertex
 10
69.01804394881516
 20
604.4452822780053
 30
0.0
  0
SEQEND
  5
100
330
FA
100
AcDbEntity
  8
Layer 1
 62
    40
370
    13
  0
POLYLINE
  5
101
330
F6
100
AcDbEntity
  8
Layer 1
 62
    40
370
    13
100
AcDb2dPolyline
 66
     1
 10
0.0
 20
0.0
 30
0.0
  0
VERTEX
  5
102
330
101
100
AcDbEntity
  8
Layer 1
 62
    40
370
    13
100
AcDbVertex
100
AcDb2dVertex
 10
51.01791527086076
 20
362.4454111905018
 30
0.0
  0
VERTEX
  5
103
330
101
100
AcDbEntity
  8
Layer 1
 62
    40
370
    13
100
AcDbVertex
100
AcDb2dVertex
 10
50.90536830772701
 20
363.6952918325504
 30
0.0
  0
VERTEX
  5
104
330
101
100
AcDbEntity
  8
Layer 1
 62
    40
370
    13
100
AcDbVertex
100
AcDb2dVertex
 10
50.57164621444021
 20
364.9049725166556
 30
0.0
  0
VERTEX
  5
105
330
101
100
AcDbEntity
  8
Layer 1
 62
    40
370
    13
100
AcDbVertex
100
AcDb2dVertex
 10
50.02695508637543
 20
366.0356313230678
 30
0.0
  0
VERTEX
  5
106
330
101
100
AcDbEntity
  8
Layer 1
 62
    40
370
    13
100
AcDbVertex
100
AcDb2dVertex
 10
49.28929554744309
 20
367.0509224944176
 30
0.0
  0
VERTEX
  5
107
330
101
100
AcDbEntity
  8
Layer 1
 62
    40
370
    13
100
AcDbVertex
100
AcDb2dVertex
 10
48.38230956541072
 20
367.9180530280551
 30
0.0
  0
VERTEX
  5
108
330
101
100
AcDbEntity
  8
Layer 1
 62
    40
370
    13
100
AcDbVertex
100
AcDb2dVertex
 10
47.33491441050764
 20
368.6094836919447
 30
0.0
  0
VERTEX
  5
109
330
101
100
AcDbEntity
  8
Layer 1
 62
    40
370
    13
100
AcDbVertex
100
AcDb2dVertex
 10
46.18095814587642
 20
369.102670642505
 30
0.0
  0
VERTEX
  5
10A
330
101
100
AcDbEntity
  8
Layer 1
 62
    40
370
    13
100
AcDbVertex
100
AcDb2dVertex
 10
44.95754014352386
 20
369.3820678863588
 30
0.0
  0
VERTEX
  5
10B
330
101
100
AcDbEntity
  8
Layer 1
 62
    40
370
    13
100
AcDbVertex
100
AcDb2dVertex
 10
43.70376223720753
 20
369.438158347228
 30
0.0
  0
VERTEX
  5
10C
330
101
100
AcDbEntity
  8
Layer 1
 62
    40
370
    13
100
AcDbVertex
100
AcDb2dVertex
 10
42.46021195811304
 20
369.2698869646203
 30
0.0
  0
VERTEX
  5
10D
330
101
100
AcDbEntity
  8
Layer 1
 62
    40
370
    13
100
AcDbVertex
100
AcDb2dVertex
 10
41.26676628648215
 20
368.8818400219005
 30
0.0
  0
VERTEX
  5
10E
330
101
100
AcDbEntity
  8
Layer 1
 62
    40
370
    13
100
AcDbVertex
100
AcDb2dVertex
 10
40.16151505927365
 20
368.2874103277674
 30
0.0
  0
VERTEX
  5
10F
330
101
100
AcDbEntity
  8
Layer 1
 62
    40
370
    13
100
AcDbVertex
100
AcDb2dVertex
 10
39.18043799246163
 20
367.50494301568
 30
0.0
  0
VERTEX
  5
110
330
101
100
AcDbEntity
  8
Layer 1
 62
    40
370
    13
100
AcDbVertex
100
AcDb2dVertex
 10
38.3549500505022
 20
366.5598456648421
 30
0.0
  0
VERTEX
  5
111
330
101
100
AcDbEntity
  8
Layer 1
 62
    40
370
    13
100
AcDbVertex
100
AcDb2dVertex
 10
37.71112629984935
 20
365.4824781792173
 30
0.0
  0
VERTEX
  5
112
330
101
100
AcDbEntity
  8
Layer 1
 62
    40
370
    13
100
AcDbVertex
100
AcDb2dVertex
 10
37.27015407773737
 20
364.3073776410454
 30
0.0
  0
VERTEX
  5
113
330
101
100
AcDbEntity
  8
Layer 1
 62
    40
370
    13
100
AcDbVertex
100
AcDb2dVertex
 10
37.046136743809
 20
363.0726554191318
 30
0.0
  0
VERTEX
  5
114
330
101
100
AcDbEntity
  8
Layer 1
 62
    40
370
    13
100
AcDbVertex
100
AcDb2dVertex
 10
37.046136743809
 20
361.8178224523232
 30
0.0
  0
VERTEX
  5
115
330
101
100
AcDbEntity
  8
Layer 1
 62
    40
370
    13
100
AcDbVertex
100
AcDb2dVertex
 10
37.27015407773737
 20
360.5831002304096
 30
0.0
  0
VERTEX
  5
116
330
101
100
AcDbEntity
  8
Layer 1
 62
    40
370
    13
100
AcDbVertex
100
AcDb2dVertex
 10
37.71112629984935
 20
359.4079996922377
 30
0.0
  0
VERTEX
  5
117
330
101
100
AcDbEntity
  8
Layer 1
 62
    40
370
    13
100
AcDbVertex
100
AcDb2dVertex
 10
38.3549500505022
 20
358.3306106747661
 30
0.0
  0
VERTEX
  5
118
330
101
100
AcDbEntity
  8
Layer 1
 62
    40
370
    13
100
AcDbVertex
100
AcDb2dVertex
 10
39.18043799246163
 20
357.3858578334767
 30
0.0
  0
VERTEX
  5
119
330
101
100
AcDbEntity
  8
Layer 1
 62
    40
370
    13
100
AcDbVertex
100
AcDb2dVertex
 10
40.16151505927365
 20
356.6034120532361
 30
0.0
  0
VERTEX
  5
11A
330
101
100
AcDbEntity
  8
Layer 1
 62
    40
370
    13
100
AcDbVertex
100
AcDb2dVertex
 10
41.26676628648215
 20
356.0086163177078
 30
0.0
  0
VERTEX
  5
11B
330
101
100
AcDbEntity
  8
Layer 1
 62
    40
370
    13
100
AcDbVertex
100
AcDb2dVertex
 10
42.46021195811304
 20
355.6209138845364
 30
0.0
  0
VERTEX
  5
11C
330
101
100
AcDbEntity
  8
Layer 1
 62
    40
370
    13
100
AcDbVertex
100
AcDb2dVertex
 10
43.70376223720753
 20
355.4522979923802
 30
0.0
  0
VERTEX
  5
11D
330
101
100
AcDbEntity
  8
Layer 1
 62
    40
370
    13
100
AcDbVertex
100
AcDb2dVertex
 10
44.95754014352386
 20
355.508732962798
 30
0.0
  0
VERTEX
  5
11E
330
101
100
AcDbEntity
  8
Layer 1
 62
    40
370
    13
100
AcDbVertex
100
AcDb2dVertex
 10
46.18095814587642
 20
355.7877856971032
 30
0.0
  0
VERTEX
  5
11F
330
101
100
AcDbEntity
  8
Layer 1
 62
    40
370
    13
100
AcDbVertex
100
AcDb2dVertex
 10
47.33491441050764
 20
356.2809726476635
 30
0.0
  0
VERTEX
  5
120
330
101
100
AcDbEntity
  8
Layer 1
 62
    40
370
    13
100
AcDbVertex
100
AcDb2dVertex
 10
48.38230956541072
 20
356.9724033115532
 30
0.0
  0
VERTEX
  5
121
330
101
100
AcDbEntity
  8
Layer 1
 62
    40
370
    13
100
AcDbVertex
100
AcDb2dVertex
 10
49.28929554744309
 20
357.8395338451905
 30
0.0
  0
VERTEX
  5
122
330
101
100
AcDbEntity
  8
Layer 1
 62
    40
370
    13
100
AcDbVertex
100
AcDb2dVertex
 10
50.02695508637543
 20
358.8548250165405
 30
0.0
  0
VERTEX
  5
123
330
101
100
AcDbEntity
  8
Layer 1
 62
    40
370
    13
100
AcDbVertex
100
AcDb2dVertex
 10
50.57164621444021
 20
359.9854838229527
 30
0.0
  0
VERTEX
  5
124
330
101
100
AcDbEntity
  8
Layer 1
 62
    40
370
    13
100
AcDbVertex
100
AcDb2dVertex
 10
50.90536830772701
 20
361.1955090166064
 30
0.0
  0
VERTEX
  5
125
330
101
100
AcDbEntity
  8
Layer 1
 62
    40
370
    13
100
AcDbVertex
100
AcDb2dVertex
 10
51.01791527086076
 20
362.4454111905018
 30
0.0
  0
SEQEND
  5
126
330
101
100
AcDbEntity
  8
Layer 1
 62
    40
370
    13
  0
POLYLINE
  5
127
330
F6
100
AcDbEntity
  8
Layer 1
 62
    40
370
    13
100
AcDb2dPolyline
 66
     1
 10
0.0
 20
0.0
 30
0.0
  0
VERTEX
  5
128
330
127
100
AcDbEntity
  8
Layer 1
 62
    40
370
    13
100
AcDbVertex
100
AcDb2dVertex
 10
51.01791527086076
 20
531.4453453659168
 30
0.0
  0
VERTEX
  5
129
330
127
100
AcDbEntity
  8
Layer 1
 62
    40
370
    13
100
AcDbVertex
100
AcDb2dVertex
 10
50.90536830772701
 20
532.6952260079654
 30
0.0
  0
VERTEX
  5
12A
330
127
100
AcDbEntity
  8
Layer 1
 62
    40
370
    13
100
AcDbVertex
100
AcDb2dVertex
 10
50.57164621444021
 20
533.9049282239173
 30
0.0
  0
VERTEX
  5
12B
330
127
100
AcDbEntity
  8
Layer 1
 62
    40
370
    13
100
AcDbVertex
100
AcDb2dVertex
 10
50.02695508637543
 20
535.0355654984827
 30
0.0
  0
VERTEX
  5
12C
330
127
100
AcDbEntity
  8
Layer 1
 62
    40
370
    13
100
AcDbVertex
100
AcDb2dVertex
 10
49.28929554744309
 20
536.0508782016794
 30
0.0
  0
VERTEX
  5
12D
330
127
100
AcDbEntity
  8
Layer 1
 62
    40
370
    13
100
AcDbVertex
100
AcDb2dVertex
 10
48.38230956541072
 20
536.9179656716232
 30
0.0
  0
VERTEX
  5
12E
330
127
100
AcDbEntity
  8
Layer 1
 62
    40
370
    13
100
AcDbVertex
100
AcDb2dVertex
 10
47.33491441050764
 20
537.6094393992064
 30
0.0
  0
VERTEX
  5
12F
330
127
100
AcDbEntity
  8
Layer 1
 62
    40
370
    13
100
AcDbVertex
100
AcDb2dVertex
 10
46.18095814587642
 20
538.10260481792
 30
0.0
  0
VERTEX
  5
130
330
127
100
AcDbEntity
  8
Layer 1
 62
    40
370
    13
100
AcDbVertex
100
AcDb2dVertex
 10
44.95754014352386
 20
538.3820020617737
 30
0.0
  0
VERTEX
  5
131
330
127
100
AcDbEntity
  8
Layer 1
 62
    40
370
    13
100
AcDbVertex
100
AcDb2dVertex
 10
43.70376223720753
 20
538.4381140544897
 30
0.0
  0
VERTEX
  5
132
330
127
100
AcDbEntity
  8
Layer 1
 62
    40
370
    13
100
AcDbVertex
100
AcDb2dVertex
 10
42.46021195811304
 20
538.2698211400352
 30
0.0
  0
VERTEX
  5
133
330
127
100
AcDbEntity
  8
Layer 1
 62
    40
370
    13
100
AcDbVertex
100
AcDb2dVertex
 10
41.26676628648215
 20
537.8821187068639
 30
0.0
  0
VERTEX
  5
134
330
127
100
AcDbEntity
  8
Layer 1
 62
    40
370
    13
100
AcDbVertex
100
AcDb2dVertex
 10
40.16151505927365
 20
537.2873660350291
 30
0.0
  0
VERTEX
  5
135
330
127
100
AcDbEntity
  8
Layer 1
 62
    40
370
    13
100
AcDbVertex
100
AcDb2dVertex
 10
39.18043799246163
 20
536.5048987229418
 30
0.0
  0
VERTEX
  5
136
330
127
100
AcDbEntity
  8
Layer 1
 62
    40
370
    13
100
AcDbVertex
100
AcDb2dVertex
 10
38.3549500505022
 20
535.5597798402571
 30
0.0
  0
VERTEX
  5
137
330
127
100
AcDbEntity
  8
Layer 1
 62
    40
370
    13
100
AcDbVertex
100
AcDb2dVertex
 10
37.71112629984935
 20
534.4824123546323
 30
0.0
  0
VERTEX
  5
138
330
127
100
AcDbEntity
  8
Layer 1
 62
    40
370
    13
100
AcDbVertex
100
AcDb2dVertex
 10
37.27015407773737
 20
533.3076778578557
 30
0.0
  0
VERTEX
  5
139
330
127
100
AcDbEntity
  8
Layer 1
 62
    40
370
    13
100
AcDbVertex
100
AcDb2dVertex
 10
37.046136743809
 20
532.0725680627
 30
0.0
  0
VERTEX
  5
13A
330
127
100
AcDbEntity
  8
Layer 1
 62
    40
370
    13
100
AcDbVertex
100
AcDb2dVertex
 10
37.046136743809
 20
530.8177350958913
 30
0.0
  0
VERTEX
  5
13B
330
127
100
AcDbEntity
  8
Layer 1
 62
    40
370
    13
100
AcDbVertex
100
AcDb2dVertex
 10
37.27015407773737
 20
529.5830128739777
 30
0.0
  0
VERTEX
  5
13C
330
127
100
AcDbEntity
  8
Layer 1
 62
    40
370
    13
100
AcDbVertex
100
AcDb2dVertex
 10
37.71112629984935
 20
528.4079338676527
 30
0.0
  0
VERTEX
  5
13D
330
127
100
AcDbEntity
  8
Layer 1
 62
    40
370
    13
100
AcDbVertex
100
AcDb2dVertex
 10
38.3549500505022
 20
527.3309108915764
 30
0.0
  0
VERTEX
  5
13E
330
127
100
AcDbEntity
  8
Layer 1
 62
    40
370
    13
100
AcDbVertex
100
AcDb2dVertex
 10
39.18043799246163
 20
526.3857920088917
 30
0.0
  0
VERTEX
  5
13F
330
127
100
AcDbEntity
  8
Layer 1
 62
    40
370
    13
100
AcDbVertex
100
AcDb2dVertex
 10
40.16151505927365
 20
525.6033246968043
 30
0.0
  0
VERTEX
  5
140
330
127
100
AcDbEntity
  8
Layer 1
 62
    40
370
    13
100
AcDbVertex
100
AcDb2dVertex
 10
41.26676628648215
 20
525.0085720249695
 30
0.0
  0
VERTEX
  5
141
330
127
100
AcDbEntity
  8
Layer 1
 62
    40
370
    13
100
AcDbVertex
100
AcDb2dVertex
 10
42.46021195811304
 20
524.6208695917982
 30
0.0
  0
VERTEX
  5
142
330
127
100
AcDbEntity
  8
Layer 1
 62
    40
370
    13
100
AcDbVertex
100
AcDb2dVertex
 10
43.70376223720753
 20
524.4522321677952
 30
0.0
  0
VERTEX
  5
143
330
127
100
AcDbEntity
  8
Layer 1
 62
    40
370
    13
100
AcDbVertex
100
AcDb2dVertex
 10
44.95754014352386
 20
524.5086886700598
 30
0.0
  0
VERTEX
  5
144
330
127
100
AcDbEntity
  8
Layer 1
 62
    40
370
    13
100
AcDbVertex
100
AcDb2dVertex
 10
46.18095814587642
 20
524.787741404365
 30
0.0
  0
VERTEX
  5
145
330
127
100
AcDbEntity
  8
Layer 1
 62
    40
370
    13
100
AcDbVertex
100
AcDb2dVertex
 10
47.33491441050764
 20
525.281251332627
 30
0.0
  0
VERTEX
  5
146
330
127
100
AcDbEntity
  8
Layer 1
 62
    40
370
    13
100
AcDbVertex
100
AcDb2dVertex
 10
48.38230956541072
 20
525.9723374869682
 30
0.0
  0
VERTEX
  5
147
330
127
100
AcDbEntity
  8
Layer 1
 62
    40
370
    13
100
AcDbVertex
100
AcDb2dVertex
 10
49.28929554744309
 20
526.8398125301541
 30
0.0
  0
VERTEX
  5
148
330
127
100
AcDbEntity
  8
Layer 1
 62
    40
370
    13
100
AcDbVertex
100
AcDb2dVertex
 10
50.02695508637543
 20
527.8551252333507
 30
0.0
  0
VERTEX
  5
149
330
127
100
AcDbEntity
  8
Layer 1
 62
    40
370
    13
100
AcDbVertex
100
AcDb2dVertex
 10
50.57164621444021
 20
528.9857625079162
 30
0.0
  0
VERTEX
  5
14A
330
127
100
AcDbEntity
  8
Layer 1
 62
    40
370
    13
100
AcDbVertex
100
AcDb2dVertex
 10
50.90536830772701
 20
530.1954647238681
 30
0.0
  0
VERTEX
  5
14B
330
127
100
AcDbEntity
  8
Layer 1
 62
    40
370
    13
100
AcDbVertex
100
AcDb2dVertex
 10
51.01791527086076
 20
531.4453453659168
 30
0.0
  0
SEQEND
  5
14C
330
127
100
AcDbEntity
  8
Layer 1
 62
    40
370
    13
  0
POLYLINE
  5
14D
330
F6
100
AcDbEntity
  8
Layer 1
 62
    40
370
    13
100
AcDb2dPolyline
 66
     1
 10
0.0
 20
0.0
 30
0.0
  0
VERTEX
  5
14E
330
14D
100
AcDbEntity
  8
Layer 1
 62
    40
370
    13
100
AcDbVertex
100
AcDb2dVertex
 10
51.01791527086076
 20
312.4451470564089
 30
0.0
  0
VERTEX
  5
14F
330
14D
100
AcDbEntity
  8
Layer 1
 62
    40
370
    13
100
AcDbVertex
100
AcDb2dVertex
 10
50.90536830772701
 20
313.6950492303044
 30
0.0
  0
VERTEX
  5
150
330
14D
100
AcDbEntity
  8
Layer 1
 62
    40
370
    13
100
AcDbVertex
100
AcDb2dVertex
 10
50.57164621444021
 20
314.905074423958
 30
0.0
  0
VERTEX
  5
151
330
14D
100
AcDbEntity
  8
Layer 1
 62
    40
370
    13
100
AcDbVertex
100
AcDb2dVertex
 10
50.02695508637543
 20
316.0357332303702
 30
0.0
  0
VERTEX
  5
152
330
14D
100
AcDbEntity
  8
Layer 1
 62
    40
370
    13
100
AcDbVertex
100
AcDb2dVertex
 10
49.28929554744309
 20
317.0510244017202
 30
0.0
  0
VERTEX
  5
153
330
14D
100
AcDbEntity
  8
Layer 1
 62
    40
370
    13
100
AcDbVertex
100
AcDb2dVertex
 10
48.38230956541072
 20
317.9181549353576
 30
0.0
  0
VERTEX
  5
154
330
14D
100
AcDbEntity
  8
Layer 1
 62
    40
370
    13
100
AcDbVertex
100
AcDb2dVertex
 10
47.33491441050764
 20
318.6095855992472
 30
0.0
  0
VERTEX
  5
155
330
14D
100
AcDbEntity
  8
Layer 1
 62
    40
370
    13
100
AcDbVertex
100
AcDb2dVertex
 10
46.18095814587642
 20
319.1027725498075
 30
0.0
  0
VERTEX
  5
156
330
14D
100
AcDbEntity
  8
Layer 1
 62
    40
370
    13
100
AcDbVertex
100
AcDb2dVertex
 10
44.95754014352386
 20
319.3818252841127
 30
0.0
  0
VERTEX
  5
157
330
14D
100
AcDbEntity
  8
Layer 1
 62
    40
370
    13
100
AcDbVertex
100
AcDb2dVertex
 10
43.70376223720753
 20
319.4382602545305
 30
0.0
  0
VERTEX
  5
158
330
14D
100
AcDbEntity
  8
Layer 1
 62
    40
370
    13
100
AcDbVertex
100
AcDb2dVertex
 10
42.46021195811304
 20
319.2696443623743
 30
0.0
  0
VERTEX
  5
159
330
14D
100
AcDbEntity
  8
Layer 1
 62
    40
370
    13
100
AcDbVertex
100
AcDb2dVertex
 10
41.26676628648215
 20
318.881941929203
 30
0.0
  0
VERTEX
  5
15A
330
14D
100
AcDbEntity
  8
Layer 1
 62
    40
370
    13
100
AcDbVertex
100
AcDb2dVertex
 10
40.16151505927365
 20
318.2871461936746
 30
0.0
  0
VERTEX
  5
15B
330
14D
100
AcDbEntity
  8
Layer 1
 62
    40
370
    13
100
AcDbVertex
100
AcDb2dVertex
 10
39.18043799246163
 20
317.504700413434
 30
0.0
  0
VERTEX
  5
15C
330
14D
100
AcDbEntity
  8
Layer 1
 62
    40
370
    13
100
AcDbVertex
100
AcDb2dVertex
 10
38.3549500505022
 20
316.5596030625961
 30
0.0
  0
VERTEX
  5
15D
330
14D
100
AcDbEntity
  8
Layer 1
 62
    40
370
    13
100
AcDbVertex
100
AcDb2dVertex
 10
37.71112629984935
 20
315.4825800865198
 30
0.0
  0
VERTEX
  5
15E
330
14D
100
AcDbEntity
  8
Layer 1
 62
    40
370
    13
100
AcDbVertex
100
AcDb2dVertex
 10
37.27015407773737
 20
314.3074580165011
 30
0.0
  0
VERTEX
  5
15F
330
14D
100
AcDbEntity
  8
Layer 1
 62
    40
370
    13
100
AcDbVertex
100
AcDb2dVertex
 10
37.046136743809
 20
313.0727357945876
 30
0.0
  0
VERTEX
  5
160
330
14D
100
AcDbEntity
  8
Layer 1
 62
    40
370
    13
100
AcDbVertex
100
AcDb2dVertex
 10
37.046136743809
 20
311.8179243596256
 30
0.0
  0
VERTEX
  5
161
330
14D
100
AcDbEntity
  8
Layer 1
 62
    40
370
    13
100
AcDbVertex
100
AcDb2dVertex
 10
37.27015407773737
 20
310.5832021377121
 30
0.0
  0
VERTEX
  5
162
330
14D
100
AcDbEntity
  8
Layer 1
 62
    40
370
    13
100
AcDbVertex
100
AcDb2dVertex
 10
37.71112629984935
 20
309.4080800676934
 30
0.0
  0
VERTEX
  5
163
330
14D
100
AcDbEntity
  8
Layer 1
 62
    40
370
    13
100
AcDbVertex
100
AcDb2dVertex
 10
38.3549500505022
 20
308.3307125820687
 30
0.0
  0
VERTEX
  5
164
330
14D
100
AcDbEntity
  8
Layer 1
 62
    40
370
    13
100
AcDbVertex
100
AcDb2dVertex
 10
39.18043799246163
 20
307.3856152312307
 30
0.0
  0
VERTEX
  5
165
330
14D
100
AcDbEntity
  8
Layer 1
 62
    40
370
    13
100
AcDbVertex
100
AcDb2dVertex
 10
40.16151505927365
 20
306.6031479191433
 30
0.0
  0
VERTEX
  5
166
330
14D
100
AcDbEntity
  8
Layer 1
 62
    40
370
    13
100
AcDbVertex
100
AcDb2dVertex
 10
41.26676628648215
 20
306.0087182250102
 30
0.0
  0
VERTEX
  5
167
330
14D
100
AcDbEntity
  8
Layer 1
 62
    40
370
    13
100
AcDbVertex
100
AcDb2dVertex
 10
42.46021195811304
 20
305.6206712822904
 30
0.0
  0
VERTEX
  5
168
330
14D
100
AcDbEntity
  8
Layer 1
 62
    40
370
    13
100
AcDbVertex
100
AcDb2dVertex
 10
43.70376223720753
 20
305.4523998996827
 30
0.0
  0
VERTEX
  5
169
330
14D
100
AcDbEntity
  8
Layer 1
 62
    40
370
    13
100
AcDbVertex
100
AcDb2dVertex
 10
44.95754014352386
 20
305.5084903605519
 30
0.0
  0
VERTEX
  5
16A
330
14D
100
AcDbEntity
  8
Layer 1
 62
    40
370
    13
100
AcDbVertex
100
AcDb2dVertex
 10
46.18095814587642
 20
305.7878876044057
 30
0.0
  0
VERTEX
  5
16B
330
14D
100
AcDbEntity
  8
Layer 1
 62
    40
370
    13
100
AcDbVertex
100
AcDb2dVertex
 10
47.33491441050764
 20
306.281074554966
 30
0.0
  0
VERTEX
  5
16C
330
14D
100
AcDbEntity
  8
Layer 1
 62
    40
370
    13
100
AcDbVertex
100
AcDb2dVertex
 10
48.38230956541072
 20
306.9725052188556
 30
0.0
  0
VERTEX
  5
16D
330
14D
100
AcDbEntity
  8
Layer 1
 62
    40
370
    13
100
AcDbVertex
100
AcDb2dVertex
 10
49.28929554744309
 20
307.8396357524931
 30
0.0
  0
VERTEX
  5
16E
330
14D
100
AcDbEntity
  8
Layer 1
 62
    40
370
    13
100
AcDbVertex
100
AcDb2dVertex
 10
50.02695508637543
 20
308.854926923843
 30
0.0
  0
VERTEX
  5
16F
330
14D
100
AcDbEntity
  8
Layer 1
 62
    40
370
    13
100
AcDbVertex
100
AcDb2dVertex
 10
50.57164621444021
 20
309.9855857302552
 30
0.0
  0
VERTEX
  5
170
330
14D
100
AcDbEntity
  8
Layer 1
 62
    40
370
    13
100
AcDbVertex
100
AcDb2dVertex
 10
50.90536830772701
 20
311.1952664143603
 30
0.0
  0
VERTEX
  5
171
330
14D
100
AcDbEntity
  8
Layer 1
 62
    40
370
    13
100
AcDbVertex
100
AcDb2dVertex
 10
51.01791527086076
 20
312.4451470564089
 30
0.0
  0
SEQEND
  5
172
330
14D
100
AcDbEntity
  8
Layer 1
 62
    40
370
    13
  0
POLYLINE
  5
173
330
F6
100
AcDbEntity
  8
Layer 1
 62
    40
370
    13
100
AcDb2dPolyline
 66
     1
 10
0.0
 20
0.0
 30
0.0
  0
VERTEX
  5
174
330
173
100
AcDbEntity
  8
Layer 1
 62
    40
370
    13
100
AcDbVertex
100
AcDb2dVertex
 10
51.01791527086076
 20
581.445264990461
 30
0.0
  0
VERTEX
  5
175
330
173
100
AcDbEntity
  8
Layer 1
 62
    40
370
    13
100
AcDbVertex
100
AcDb2dVertex
 10
50.90536830772701
 20
582.6951456325097
 30
0.0
  0
VERTEX
  5
176
330
173
100
AcDbEntity
  8
Layer 1
 62
    40
370
    13
100
AcDbVertex
100
AcDb2dVertex
 10
50.57164621444021
 20
583.904804784768
 30
0.0
  0
VERTEX
  5
177
330
173
100
AcDbEntity
  8
Layer 1
 62
    40
370
    13
100
AcDbVertex
100
AcDb2dVertex
 10
50.02695508637543
 20
585.0354420593335
 30
0.0
  0
VERTEX
  5
178
330
173
100
AcDbEntity
  8
Layer 1
 62
    40
370
    13
100
AcDbVertex
100
AcDb2dVertex
 10
49.28929554744309
 20
586.0507547625301
 30
0.0
  0
VERTEX
  5
179
330
173
100
AcDbEntity
  8
Layer 1
 62
    40
370
    13
100
AcDbVertex
100
AcDb2dVertex
 10
48.38230956541072
 20
586.918229805716
 30
0.0
  0
VERTEX
  5
17A
330
173
100
AcDbEntity
  8
Layer 1
 62
    40
370
    13
100
AcDbVertex
100
AcDb2dVertex
 10
47.33491441050764
 20
587.6093159600572
 30
0.0
  0
VERTEX
  5
17B
330
173
100
AcDbEntity
  8
Layer 1
 62
    40
370
    13
100
AcDbVertex
100
AcDb2dVertex
 10
46.18095814587642
 20
588.1025244424642
 30
0.0
  0
VERTEX
  5
17C
330
173
100
AcDbEntity
  8
Layer 1
 62
    40
370
    13
100
AcDbVertex
100
AcDb2dVertex
 10
44.95754014352386
 20
588.381921686318
 30
0.0
  0
VERTEX
  5
17D
330
173
100
AcDbEntity
  8
Layer 1
 62
    40
370
    13
100
AcDbVertex
100
AcDb2dVertex
 10
43.70376223720753
 20
588.4383781885825
 30
0.0
  0
VERTEX
  5
17E
330
173
100
AcDbEntity
  8
Layer 1
 62
    40
370
    13
100
AcDbVertex
100
AcDb2dVertex
 10
42.46021195811304
 20
588.2697407645795
 30
0.0
  0
VERTEX
  5
17F
330
173
100
AcDbEntity
  8
Layer 1
 62
    40
370
    13
100
AcDbVertex
100
AcDb2dVertex
 10
41.26676628648215
 20
587.8820383314082
 30
0.0
  0
VERTEX
  5
180
330
173
100
AcDbEntity
  8
Layer 1
 62
    40
370
    13
100
AcDbVertex
100
AcDb2dVertex
 10
40.16151505927365
 20
587.2872425958799
 30
0.0
  0
VERTEX
  5
181
330
173
100
AcDbEntity
  8
Layer 1
 62
    40
370
    13
100
AcDbVertex
100
AcDb2dVertex
 10
39.18043799246163
 20
586.5047752837925
 30
0.0
  0
VERTEX
  5
182
330
173
100
AcDbEntity
  8
Layer 1
 62
    40
370
    13
100
AcDbVertex
100
AcDb2dVertex
 10
38.3549500505022
 20
585.5596994648014
 30
0.0
  0
VERTEX
  5
183
330
173
100
AcDbEntity
  8
Layer 1
 62
    40
370
    13
100
AcDbVertex
100
AcDb2dVertex
 10
37.71112629984935
 20
584.482288915483
 30
0.0
  0
VERTEX
  5
184
330
173
100
AcDbEntity
  8
Layer 1
 62
    40
370
    13
100
AcDbVertex
100
AcDb2dVertex
 10
37.27015407773737
 20
583.3075544187063
 30
0.0
  0
VERTEX
  5
185
330
173
100
AcDbEntity
  8
Layer 1
 62
    40
370
    13
100
AcDbVertex
100
AcDb2dVertex
 10
37.046136743809
 20
582.0728321967929
 30
0.0
  0
VERTEX
  5
186
330
173
100
AcDbEntity
  8
Layer 1
 62
    40
370
    13
100
AcDbVertex
100
AcDb2dVertex
 10
37.046136743809
 20
580.8176547204356
 30
0.0
  0
VERTEX
  5
187
330
173
100
AcDbEntity
  8
Layer 1
 62
    40
370
    13
100
AcDbVertex
100
AcDb2dVertex
 10
37.27015407773737
 20
579.582932498522
 30
0.0
  0
VERTEX
  5
188
330
173
100
AcDbEntity
  8
Layer 1
 62
    40
370
    13
100
AcDbVertex
100
AcDb2dVertex
 10
37.71112629984935
 20
578.4081980017454
 30
0.0
  0
VERTEX
  5
189
330
173
100
AcDbEntity
  8
Layer 1
 62
    40
370
    13
100
AcDbVertex
100
AcDb2dVertex
 10
38.3549500505022
 20
577.3307874524271
 30
0.0
  0
VERTEX
  5
18A
330
173
100
AcDbEntity
  8
Layer 1
 62
    40
370
    13
100
AcDbVertex
100
AcDb2dVertex
 10
39.18043799246163
 20
576.385711633436
 30
0.0
  0
VERTEX
  5
18B
330
173
100
AcDbEntity
  8
Layer 1
 62
    40
370
    13
100
AcDbVertex
100
AcDb2dVertex
 10
40.16151505927365
 20
575.6032443213486
 30
0.0
  0
VERTEX
  5
18C
330
173
100
AcDbEntity
  8
Layer 1
 62
    40
370
    13
100
AcDbVertex
100
AcDb2dVertex
 10
41.26676628648215
 20
575.0084485858202
 30
0.0
  0
VERTEX
  5
18D
330
173
100
AcDbEntity
  8
Layer 1
 62
    40
370
    13
100
AcDbVertex
100
AcDb2dVertex
 10
42.46021195811304
 20
574.620746152649
 30
0.0
  0
VERTEX
  5
18E
330
173
100
AcDbEntity
  8
Layer 1
 62
    40
370
    13
100
AcDbVertex
100
AcDb2dVertex
 10
43.70376223720753
 20
574.452496301888
 30
0.0
  0
VERTEX
  5
18F
330
173
100
AcDbEntity
  8
Layer 1
 62
    40
370
    13
100
AcDbVertex
100
AcDb2dVertex
 10
44.95754014352386
 20
574.5085652309104
 30
0.0
  0
VERTEX
  5
190
330
173
100
AcDbEntity
  8
Layer 1
 62
    40
370
    13
100
AcDbVertex
100
AcDb2dVertex
 10
46.18095814587642
 20
574.7879624747642
 30
0.0
  0
VERTEX
  5
191
330
173
100
AcDbEntity
  8
Layer 1
 62
    40
370
    13
100
AcDbVertex
100
AcDb2dVertex
 10
47.33491441050764
 20
575.2811709571713
 30
0.0
  0
VERTEX
  5
192
330
173
100
AcDbEntity
  8
Layer 1
 62
    40
370
    13
100
AcDbVertex
100
AcDb2dVertex
 10
48.38230956541072
 20
575.9726016210609
 30
0.0
  0
VERTEX
  5
193
330
173
100
AcDbEntity
  8
Layer 1
 62
    40
370
    13
100
AcDbVertex
100
AcDb2dVertex
 10
49.28929554744309
 20
576.8397321546984
 30
0.0
  0
VERTEX
  5
194
330
173
100
AcDbEntity
  8
Layer 1
 62
    40
370
    13
100
AcDbVertex
100
AcDb2dVertex
 10
50.02695508637543
 20
577.855044857895
 30
0.0
  0
VERTEX
  5
195
330
173
100
AcDbEntity
  8
Layer 1
 62
    40
370
    13
100
AcDbVertex
100
AcDb2dVertex
 10
50.57164621444021
 20
578.9856821324605
 30
0.0
  0
VERTEX
  5
196
330
173
100
AcDbEntity
  8
Layer 1
 62
    40
370
    13
100
AcDbVertex
100
AcDb2dVertex
 10
50.90536830772701
 20
580.1953412847188
 30
0.0
  0
VERTEX
  5
197
330
173
100
AcDbEntity
  8
Layer 1
 62
    40
370
    13
100
AcDbVertex
100
AcDb2dVertex
 10
51.01791527086076
 20
581.445264990461
 30
0.0
  0
SEQEND
  5
198
330
173
100
AcDbEntity
  8
Layer 1
 62
    40
370
    13
  0
ENDBLK
  5
F9
330
F6
100
AcDbEntity
  8
0
100
AcDbBlockEnd
  0
BLOCK
  5
1A9
330
1A7
100
AcDbEntity
  8
0
100
AcDbBlockBegin
  2
block 7
 70
     0
 10
0.0
 20
0.0
 30
0.0
  3
block 7
  1

  0
POLYLINE
  5
1AB
330
1A7
100
AcDbEntity
  8
Layer 1
 62
    40
370
    13
100
AcDb2dPolyline
 66
     1
 10
0.0
 20
0.0
 30
0.0
  0
VERTEX
  5
1AC
330
1AB
100
AcDbEntity
  8
Layer 1
 62
    40
370
    13
100
AcDbVertex
100
AcDb2dVertex
 10
194.8572189933102
 20
342.1997908071083
 30
0.0
  0
VERTEX
  5
1AD
330
1AB
100
AcDbEntity
  8
Layer 1
 62
    40
370
    13
100
AcDbVertex
100
AcDb2dVertex
 10
194.8162654207293
 20
342.0703198124033
 30
0.0
  0
VERTEX
  5
1AE
330
1AB
100
AcDbEntity
  8
Layer 1
 62
    40
370
    13
100
AcDbVertex
100
AcDb2dVertex
 10
194.6384984936904
 20
341.1061883090093
 30
0.0
  0
VERTEX
  5
1AF
330
1AB
100
AcDbEntity
  8
Layer 1
 62
    40
370
    13
100
AcDbVertex
100
AcDb2dVertex
 10
194.6384984936904
 20
340.0196267248083
 30
0.0
  0
VERTEX
  5
1B0
330
1AB
100
AcDbEntity
  8
Layer 1
 62
    40
370
    13
100
AcDbVertex
100
AcDb2dVertex
 10
194.8162654207293
 20
338.8498230209449
 30
0.0
  0
VERTEX
  5
1B1
330
1AB
100
AcDbEntity
  8
Layer 1
 62
    40
370
    13
100
AcDbVertex
100
AcDb2dVertex
 10
195.1662440583372
 20
337.6390872763474
 30
0.0
  0
VERTEX
  5
1B2
330
1AB
100
AcDbEntity
  8
Layer 1
 62
    40
370
    13
100
AcDbVertex
100
AcDb2dVertex
 10
195.6749554704278
 20
336.4311722036785
 30
0.0
  0
VERTEX
  5
1B3
330
1AB
100
AcDbEntity
  8
Layer 1
 62
    40
370
    13
100
AcDbVertex
100
AcDb2dVertex
 10
196.324399033091
 20
335.2698305156008
 30
0.0
  0
VERTEX
  5
1B4
330
1AB
100
AcDbEntity
  8
Layer 1
 62
    40
370
    13
100
AcDbVertex
100
AcDb2dVertex
 10
197.0906313327041
 20
334.197027781494
 30
0.0
  0
VERTEX
  5
1B5
330
1AB
100
AcDbEntity
  8
Layer 1
 62
    40
370
    13
100
AcDbVertex
100
AcDb2dVertex
 10
197.9468236881758
 20
333.2515859211075
 30
0.0
  0
VERTEX
  5
1B6
330
1AB
100
AcDbEntity
  8
Layer 1
 62
    40
370
    13
100
AcDbVertex
100
AcDb2dVertex
 10
198.8612381573483
 20
332.4673529975839
 30
0.0
  0
VERTEX
  5
1B7
330
1AB
100
AcDbEntity
  8
Layer 1
 62
    40
370
    13
100
AcDbVertex
100
AcDb2dVertex
 10
199.8010171420309
 20
331.8729233034509
 30
0.0
  0
VERTEX
  5
1B8
330
1AB
100
AcDbEntity
  8
Layer 1
 62
    40
370
    13
100
AcDbVertex
100
AcDb2dVertex
 10
200.7327001523231
 20
331.4898071536443
 30
0.0
  0
VERTEX
  5
1B9
330
1AB
100
AcDbEntity
  8
Layer 1
 62
    40
370
    13
100
AcDbVertex
100
AcDb2dVertex
 10
201.0918513566604
 20
331.3998470977857
 30
0.0
  0
SEQEND
  5
1BA
330
1AB
100
AcDbEntity
  8
Layer 1
 62
    40
370
    13
  0
POLYLINE
  5
1BB
330
1A7
100
AcDbEntity
  8
Layer 1
 62
    40
370
    13
100
AcDb2dPolyline
 66
     1
 10
0.0
 20
0.0
 30
0.0
  0
VERTEX
  5
1BC
330
1BB
100
AcDbEntity
  8
Layer 1
 62
    40
370
    13
100
AcDbVertex
100
AcDb2dVertex
 10
194.8572189933102
 20
383.0267561289328
 30
0.0
  0
VERTEX
  5
1BD
330
1BB
100
AcDbEntity
  8
Layer 1
 62
    40
370
    13
100
AcDbVertex
100
AcDb2dVertex
 10
194.8162654207293
 20
382.8972851342278
 30
0.0
  0
VERTEX
  5
1BE
330
1BB
100
AcDbEntity
  8
Layer 1
 62
    40
370
    13
100
AcDbVertex
100
AcDb2dVertex
 10
194.6384984936904
 20
381.9331536308338
 30
0.0
  0
VERTEX
  5
1BF
330
1BB
100
AcDbEntity
  8
Layer 1
 62
    40
370
    13
100
AcDbVertex
100
AcDb2dVertex
 10
194.6384984936904
 20
380.8465920466328
 30
0.0
  0
VERTEX
  5
1C0
330
1BB
100
AcDbEntity
  8
Layer 1
 62
    40
370
    13
100
AcDbVertex
100
AcDb2dVertex
 10
194.8162654207293
 20
379.6767883427694
 30
0.0
  0
VERTEX
  5
1C1
330
1BB
100
AcDbEntity
  8
Layer 1
 62
    40
370
    13
100
AcDbVertex
100
AcDb2dVertex
 10
195.1662440583372
 20
378.4660525981719
 30
0.0
  0
VERTEX
  5
1C2
330
1BB
100
AcDbEntity
  8
Layer 1
 62
    40
370
    13
100
AcDbVertex
100
AcDb2dVertex
 10
195.6749554704278
 20
377.258137525503
 30
0.0
  0
VERTEX
  5
1C3
330
1BB
100
AcDbEntity
  8
Layer 1
 62
    40
370
    13
100
AcDbVertex
100
AcDb2dVertex
 10
196.324399033091
 20
376.0967958374253
 30
0.0
  0
VERTEX
  5
1C4
330
1BB
100
AcDbEntity
  8
Layer 1
 62
    40
370
    13
100
AcDbVertex
100
AcDb2dVertex
 10
197.0906313327041
 20
375.0239931033185
 30
0.0
  0
VERTEX
  5
1C5
330
1BB
100
AcDbEntity
  8
Layer 1
 62
    40
370
    13
100
AcDbVertex
100
AcDb2dVertex
 10
197.9468236881758
 20
374.078551242932
 30
0.0
  0
VERTEX
  5
1C6
330
1BB
100
AcDbEntity
  8
Layer 1
 62
    40
370
    13
100
AcDbVertex
100
AcDb2dVertex
 10
198.8612381573483
 20
373.2943398512552
 30
0.0
  0
VERTEX
  5
1C7
330
1BB
100
AcDbEntity
  8
Layer 1
 62
    40
370
    13
100
AcDbVertex
100
AcDb2dVertex
 10
199.8010171420309
 20
372.6999101571222
 30
0.0
  0
VERTEX
  5
1C8
330
1BB
100
AcDbEntity
  8
Layer 1
 62
    40
370
    13
100
AcDbVertex
100
AcDb2dVertex
 10
200.7327001523231
 20
372.3171385168641
 30
0.0
  0
VERTEX
  5
1C9
330
1BB
100
AcDbEntity
  8
Layer 1
 62
    40
370
    13
100
AcDbVertex
100
AcDb2dVertex
 10
201.0918513566604
 20
372.226833951457
 30
0.0
  0
SEQEND
  5
1CA
330
1BB
100
AcDbEntity
  8
Layer 1
 62
    40
370
    13
  0
POLYLINE
  5
1CB
330
1A7
100
AcDbEntity
  8
Layer 1
 62
    40
370
    13
100
AcDb2dPolyline
 66
     1
 10
0.0
 20
0.0
 30
0.0
  0
VERTEX
  5
1CC
330
1CB
100
AcDbEntity
  8
Layer 1
 62
    40
370
    13
100
AcDbVertex
100
AcDb2dVertex
 10
194.8572189933102
 20
521.0221228479062
 30
0.0
  0
VERTEX
  5
1CD
330
1CB
100
AcDbEntity
  8
Layer 1
 62
    40
370
    13
100
AcDbVertex
100
AcDb2dVertex
 10
194.8162654207293
 20
520.8926303213544
 30
0.0
  0
VERTEX
  5
1CE
330
1CB
100
AcDbEntity
  8
Layer 1
 62
    40
370
    13
100
AcDbVertex
100
AcDb2dVertex
 10
194.6384984936904
 20
519.9285203498072
 30
0.0
  0
VERTEX
  5
1CF
330
1CB
100
AcDbEntity
  8
Layer 1
 62
    40
370
    13
100
AcDbVertex
100
AcDb2dVertex
 10
194.6384984936904
 20
518.8419372337594
 30
0.0
  0
VERTEX
  5
1D0
330
1CB
100
AcDbEntity
  8
Layer 1
 62
    40
370
    13
100
AcDbVertex
100
AcDb2dVertex
 10
194.8162654207293
 20
517.6721550617428
 30
0.0
  0
VERTEX
  5
1D1
330
1CB
100
AcDbEntity
  8
Layer 1
 62
    40
370
    13
100
AcDbVertex
100
AcDb2dVertex
 10
195.1662440583372
 20
516.4614193171453
 30
0.0
  0
VERTEX
  5
1D2
330
1CB
100
AcDbEntity
  8
Layer 1
 62
    40
370
    13
100
AcDbVertex
100
AcDb2dVertex
 10
195.6749554704278
 20
515.2534827126296
 30
0.0
  0
VERTEX
  5
1D3
330
1CB
100
AcDbEntity
  8
Layer 1
 62
    40
370
    13
100
AcDbVertex
100
AcDb2dVertex
 10
196.324399033091
 20
514.0921410245519
 30
0.0
  0
VERTEX
  5
1D4
330
1CB
100
AcDbEntity
  8
Layer 1
 62
    40
370
    13
100
AcDbVertex
100
AcDb2dVertex
 10
197.0906313327041
 20
513.0193382904451
 30
0.0
  0
VERTEX
  5
1D5
330
1CB
100
AcDbEntity
  8
Layer 1
 62
    40
370
    13
100
AcDbVertex
100
AcDb2dVertex
 10
197.9468236881758
 20
512.0739179619054
 30
0.0
  0
VERTEX
  5
1D6
330
1CB
100
AcDbEntity
  8
Layer 1
 62
    40
370
    13
100
AcDbVertex
100
AcDb2dVertex
 10
198.8612381573483
 20
511.2896850383818
 30
0.0
  0
VERTEX
  5
1D7
330
1CB
100
AcDbEntity
  8
Layer 1
 62
    40
370
    13
100
AcDbVertex
100
AcDb2dVertex
 10
199.8010171420309
 20
510.6952768760955
 30
0.0
  0
VERTEX
  5
1D8
330
1CB
100
AcDbEntity
  8
Layer 1
 62
    40
370
    13
100
AcDbVertex
100
AcDb2dVertex
 10
200.7327001523231
 20
510.3124837039907
 30
0.0
  0
VERTEX
  5
1D9
330
1CB
100
AcDbEntity
  8
Layer 1
 62
    40
370
    13
100
AcDbVertex
100
AcDb2dVertex
 10
201.0918513566604
 20
510.2221791385836
 30
0.0
  0
SEQEND
  5
1DA
330
1CB
100
AcDbEntity
  8
Layer 1
 62
    40
370
    13
  0
POLYLINE
  5
1DB
330
1A7
100
AcDbEntity
  8
Layer 1
 62
    40
370
    13
100
AcDb2dPolyline
 66
     1
 10
0.0
 20
0.0
 30
0.0
  0
VERTEX
  5
1DC
330
1DB
100
AcDbEntity
  8
Layer 1
 62
    40
370
    13
100
AcDbVertex
100
AcDb2dVertex
 10
194.8572189933102
 20
561.8490881697307
 30
0.0
  0
VERTEX
  5
1DD
330
1DB
100
AcDbEntity
  8
Layer 1
 62
    40
370
    13
100
AcDbVertex
100
AcDb2dVertex
 10
194.8162654207293
 20
561.7196387068725
 30
0.0
  0
VERTEX
  5
1DE
330
1DB
100
AcDbEntity
  8
Layer 1
 62
    40
370
    13
100
AcDbVertex
100
AcDb2dVertex
 10
194.6384984936904
 20
560.7554856716317
 30
0.0
  0
VERTEX
  5
1DF
330
1DB
100
AcDbEntity
  8
Layer 1
 62
    40
370
    13
100
AcDbVertex
100
AcDb2dVertex
 10
194.6384984936904
 20
559.6689456192775
 30
0.0
  0
VERTEX
  5
1E0
330
1DB
100
AcDbEntity
  8
Layer 1
 62
    40
370
    13
100
AcDbVertex
100
AcDb2dVertex
 10
194.8162654207293
 20
558.4991203835673
 30
0.0
  0
VERTEX
  5
1E1
330
1DB
100
AcDbEntity
  8
Layer 1
 62
    40
370
    13
100
AcDbVertex
100
AcDb2dVertex
 10
195.1662440583372
 20
557.2883846389699
 30
0.0
  0
VERTEX
  5
1E2
330
1DB
100
AcDbEntity
  8
Layer 1
 62
    40
370
    13
100
AcDbVertex
100
AcDb2dVertex
 10
195.6749554704278
 20
556.0804910981477
 30
0.0
  0
VERTEX
  5
1E3
330
1DB
100
AcDbEntity
  8
Layer 1
 62
    40
370
    13
100
AcDbVertex
100
AcDb2dVertex
 10
196.324399033091
 20
554.9191063463765
 30
0.0
  0
VERTEX
  5
1E4
330
1DB
100
AcDbEntity
  8
Layer 1
 62
    40
370
    13
100
AcDbVertex
100
AcDb2dVertex
 10
197.0906313327041
 20
553.8463466759632
 30
0.0
  0
VERTEX
  5
1E5
330
1DB
100
AcDbEntity
  8
Layer 1
 62
    40
370
    13
100
AcDbVertex
100
AcDb2dVertex
 10
197.9468236881758
 20
552.90088328373
 30
0.0
  0
VERTEX
  5
1E6
330
1DB
100
AcDbEntity
  8
Layer 1
 62
    40
370
    13
100
AcDbVertex
100
AcDb2dVertex
 10
198.8612381573483
 20
552.1166503602063
 30
0.0
  0
VERTEX
  5
1E7
330
1DB
100
AcDbEntity
  8
Layer 1
 62
    40
370
    13
100
AcDbVertex
100
AcDb2dVertex
 10
199.8010171420309
 20
551.5225867074686
 30
0.0
  0
VERTEX
  5
1E8
330
1DB
100
AcDbEntity
  8
Layer 1
 62
    40
370
    13
100
AcDbVertex
100
AcDb2dVertex
 10
200.7327001523231
 20
551.1394490258152
 30
0.0
  0
VERTEX
  5
1E9
330
1DB
100
AcDbEntity
  8
Layer 1
 62
    40
370
    13
100
AcDbVertex
100
AcDb2dVertex
 10
201.0918513566604
 20
551.0494889699567
 30
0.0
  0
SEQEND
  5
1EA
330
1DB
100
AcDbEntity
  8
Layer 1
 62
    40
370
    13
  0
POLYLINE
  5
1EB
330
1A7
100
AcDbEntity
  8
Layer 1
 62
    40
370
    13
100
AcDb2dPolyline
 66
     1
 10
0.0
 20
0.0
 30
0.0
  0
VERTEX
  5
1EC
330
1EB
100
AcDbEntity
  8
Layer 1
 62
    40
370
    13
100
AcDbVertex
100
AcDb2dVertex
 10
217.2434063927701
 20
565.9430673896273
 30
0.0
  0
VERTEX
  5
1ED
330
1EB
100
AcDbEntity
  8
Layer 1
 62
    40
370
    13
100
AcDbVertex
100
AcDb2dVertex
 10
181.8880278480065
 20
586.3534064009093
 30
0.0
  0
SEQEND
  5
1EE
330
1EB
100
AcDbEntity
  8
Layer 1
 62
    40
370
    13
  0
POLYLINE
  5
1EF
330
1A7
100
AcDbEntity
  8
Layer 1
 62
    40
370
    13
100
AcDb2dPolyline
 66
     1
 10
0.0
 20
0.0
 30
0.0
  0
VERTEX
  5
1F0
330
1EF
100
AcDbEntity
  8
Layer 1
 62
    40
370
    13
100
AcDbVertex
100
AcDb2dVertex
 10
181.8880278480065
 20
586.3534064009093
 30
0.0
  0
VERTEX
  5
1F1
330
1EF
100
AcDbEntity
  8
Layer 1
 62
    40
370
    13
100
AcDbVertex
100
AcDb2dVertex
 10
178.7059654030555
 20
584.5164814881741
 30
0.0
  0
SEQEND
  5
1F2
330
1EF
100
AcDbEntity
  8
Layer 1
 62
    40
370
    13
  0
POLYLINE
  5
1F3
330
1A7
100
AcDbEntity
  8
Layer 1
 62
    40
370
    13
100
AcDb2dPolyline
 66
     1
 10
0.0
 20
0.0
 30
0.0
  0
VERTEX
  5
1F4
330
1F3
100
AcDbEntity
  8
Layer 1
 62
    40
370
    13
100
AcDbVertex
100
AcDb2dVertex
 10
217.2434063927701
 20
308.7328198207376
 30
0.0
  0
VERTEX
  5
1F5
330
1F3
100
AcDbEntity
  8
Layer 1
 62
    40
370
    13
100
AcDbVertex
100
AcDb2dVertex
 10
214.0613870115127
 20
306.8959164398492
 30
0.0
  0
SEQEND
  5
1F6
330
1F3
100
AcDbEntity
  8
Layer 1
 62
    40
370
    13
  0
POLYLINE
  5
1F7
330
1A7
100
AcDbEntity
  8
Layer 1
 62
    40
370
    13
100
AcDb2dPolyline
 66
     1
 10
0.0
 20
0.0
 30
0.0
  0
VERTEX
  5
1F8
330
1F7
100
AcDbEntity
  8
Layer 1
 62
    40
370
    13
100
AcDbVertex
100
AcDb2dVertex
 10
217.2434063927701
 20
308.7328198207376
 30
0.0
  0
VERTEX
  5
1F9
330
1F7
100
AcDbEntity
  8
Layer 1
 62
    40
370
    13
100
AcDbVertex
100
AcDb2dVertex
 10
217.2434063927701
 20
565.9430673896273
 30
0.0
  0
SEQEND
  5
1FA
330
1F7
100
AcDbEntity
  8
Layer 1
 62
    40
370
    13
  0
POLYLINE
  5
1FB
330
1A7
100
AcDbEntity
  8
Layer 1
 62
    40
370
    13
100
AcDb2dPolyline
 66
     1
 10
0.0
 20
0.0
 30
0.0
  0
VERTEX
  5
1FC
330
1FB
100
AcDbEntity
  8
Layer 1
 62
    40
370
    13
100
AcDbVertex
100
AcDb2dVertex
 10
217.2434063927701
 20
565.9430673896273
 30
0.0
  0
VERTEX
  5
1FD
330
1FB
100
AcDbEntity
  8
Layer 1
 62
    40
370
    13
100
AcDbVertex
100
AcDb2dVertex
 10
214.0613870115127
 20
564.1061855405857
 30
0.0
  0
SEQEND
  5
1FE
330
1FB
100
AcDbEntity
  8
Layer 1
 62
    40
370
    13
  0
POLYLINE
  5
1FF
330
1A7
100
AcDbEntity
  8
Layer 1
 62
    40
370
    13
100
AcDb2dPolyline
 66
     1
 10
0.0
 20
0.0
 30
0.0
  0
VERTEX
  5
200
330
1FF
100
AcDbEntity
  8
Layer 1
 62
    40
370
    13
100
AcDbVertex
100
AcDb2dVertex
 10
201.3334817412571
 20
373.8510026861313
 30
0.0
  0
VERTEX
  5
201
330
1FF
100
AcDbEntity
  8
Layer 1
 62
    40
370
    13
100
AcDbVertex
100
AcDb2dVertex
 10
201.2439092586407
 20
374.984482164472
 30
0.0
  0
VERTEX
  5
202
330
1FF
100
AcDbEntity
  8
Layer 1
 62
    40
370
    13
100
AcDbVertex
100
AcDb2dVertex
 10
200.9789383521314
 20
376.1800594889344
 30
0.0
  0
VERTEX
  5
203
330
1FF
100
AcDbEntity
  8
Layer 1
 62
    40
370
    13
100
AcDbVertex
100
AcDb2dVertex
 10
200.547526269991
 20
377.3946709659528
 30
0.0
  0
VERTEX
  5
204
330
1FF
100
AcDbEntity
  8
Layer 1
 62
    40
370
    13
100
AcDbVertex
100
AcDb2dVertex
 10
199.9661233431615
 20
378.5845854147113
 30
0.0
  0
VERTEX
  5
205
330
1FF
100
AcDbEntity
  8
Layer 1
 62
    40
370
    13
100
AcDbVertex
100
AcDb2dVertex
 10
199.2549264439252
 20
379.7067822053379
 30
0.0
  0
VERTEX
  5
206
330
1FF
100
AcDbEntity
  8
Layer 1
 62
    40
370
    13
100
AcDbVertex
100
AcDb2dVertex
 10
198.4400321705829
 20
380.7206522748002
 30
0.0
  0
VERTEX
  5
207
330
1FF
100
AcDbEntity
  8
Layer 1
 62
    40
370
    13
100
AcDbVertex
100
AcDb2dVertex
 10
197.5506807710657
 20
381.5895484198737
 30
0.0
  0
VERTEX
  5
208
330
1FF
100
AcDbEntity
  8
Layer 1
 62
    40
370
    13
100
AcDbVertex
100
AcDb2dVertex
 10
196.619342270322
 20
382.2816896347072
 30
0.0
  0
VERTEX
  5
209
330
1FF
100
AcDbEntity
  8
Layer 1
 62
    40
370
    13
100
AcDbVertex
100
AcDb2dVertex
 10
195.6791757123973
 20
382.7727664642828
 30
0.0
  0
VERTEX
  5
20A
330
1FF
100
AcDbEntity
  8
Layer 1
 62
    40
370
    13
100
AcDbVertex
100
AcDb2dVertex
 10
194.7647612432249
 20
383.0444122432947
 30
0.0
  0
VERTEX
  5
20B
330
1FF
100
AcDbEntity
  8
Layer 1
 62
    40
370
    13
100
AcDbVertex
100
AcDb2dVertex
 10
193.9089564609952
 20
383.0870883636182
 30
0.0
  0
VERTEX
  5
20C
330
1FF
100
AcDbEntity
  8
Layer 1
 62
    40
370
    13
100
AcDbVertex
100
AcDb2dVertex
 10
193.14233658814
 20
382.8994167870593
 30
0.0
  0
VERTEX
  5
20D
330
1FF
100
AcDbEntity
  8
Layer 1
 62
    40
370
    13
100
AcDbVertex
100
AcDb2dVertex
 10
192.4928930254768
 20
382.4877278765719
 30
0.0
  0
VERTEX
  5
20E
330
1FF
100
AcDbEntity
  8
Layer 1
 62
    40
370
    13
100
AcDbVertex
100
AcDb2dVertex
 10
191.9841816133861
 20
381.8671800522913
 30
0.0
  0
VERTEX
  5
20F
330
1FF
100
AcDbEntity
  8
Layer 1
 62
    40
370
    13
100
AcDbVertex
100
AcDb2dVertex
 10
191.6345905490204
 20
381.0603817533394
 30
0.0
  0
VERTEX
  5
210
330
1FF
100
AcDbEntity
  8
Layer 1
 62
    40
370
    13
100
AcDbVertex
100
AcDb2dVertex
 10
191.4564360487394
 20
380.0962287180986
 30
0.0
  0
VERTEX
  5
211
330
1FF
100
AcDbEntity
  8
Layer 1
 62
    40
370
    13
100
AcDbVertex
100
AcDb2dVertex
 10
191.4564360487394
 20
379.0096886657444
 30
0.0
  0
VERTEX
  5
212
330
1FF
100
AcDbEntity
  8
Layer 1
 62
    40
370
    13
100
AcDbVertex
100
AcDb2dVertex
 10
191.6345905490204
 20
377.8398634300343
 30
0.0
  0
VERTEX
  5
213
330
1FF
100
AcDbEntity
  8
Layer 1
 62
    40
370
    13
100
AcDbVertex
100
AcDb2dVertex
 10
191.9841816133861
 20
376.6291276854367
 30
0.0
  0
VERTEX
  5
214
330
1FF
100
AcDbEntity
  8
Layer 1
 62
    40
370
    13
100
AcDbVertex
100
AcDb2dVertex
 10
192.4928930254768
 20
375.4212341446146
 30
0.0
  0
VERTEX
  5
215
330
1FF
100
AcDbEntity
  8
Layer 1
 62
    40
370
    13
100
AcDbVertex
100
AcDb2dVertex
 10
193.14233658814
 20
374.2598924565369
 30
0.0
  0
VERTEX
  5
216
330
1FF
100
AcDbEntity
  8
Layer 1
 62
    40
370
    13
100
AcDbVertex
100
AcDb2dVertex
 10
193.9089564609952
 20
373.1870897224301
 30
0.0
  0
VERTEX
  5
217
330
1FF
100
AcDbEntity
  8
Layer 1
 62
    40
370
    13
100
AcDbVertex
100
AcDb2dVertex
 10
194.7647612432249
 20
372.2416478620436
 30
0.0
  0
VERTEX
  5
218
330
1FF
100
AcDbEntity
  8
Layer 1
 62
    40
370
    13
100
AcDbVertex
100
AcDb2dVertex
 10
195.6791757123973
 20
371.4574149385201
 30
0.0
  0
VERTEX
  5
219
330
1FF
100
AcDbEntity
  8
Layer 1
 62
    40
370
    13
100
AcDbVertex
100
AcDb2dVertex
 10
196.619342270322
 20
370.8629852443869
 30
0.0
  0
VERTEX
  5
21A
330
1FF
100
AcDbEntity
  8
Layer 1
 62
    40
370
    13
100
AcDbVertex
100
AcDb2dVertex
 10
197.5506807710657
 20
370.4802136041289
 30
0.0
  0
VERTEX
  5
21B
330
1FF
100
AcDbEntity
  8
Layer 1
 62
    40
370
    13
100
AcDbVertex
100
AcDb2dVertex
 10
198.4400321705829
 20
370.3221698487431
 30
0.0
  0
VERTEX
  5
21C
330
1FF
100
AcDbEntity
  8
Layer 1
 62
    40
370
    13
100
AcDbVertex
100
AcDb2dVertex
 10
199.2549264439252
 20
370.3948398316351
 30
0.0
  0
VERTEX
  5
21D
330
1FF
100
AcDbEntity
  8
Layer 1
 62
    40
370
    13
100
AcDbVertex
100
AcDb2dVertex
 10
199.9661233431615
 20
370.6961134318202
 30
0.0
  0
VERTEX
  5
21E
330
1FF
100
AcDbEntity
  8
Layer 1
 62
    40
370
    13
100
AcDbVertex
100
AcDb2dVertex
 10
200.547526269991
 20
371.2143419201889
 30
0.0
  0
VERTEX
  5
21F
330
1FF
100
AcDbEntity
  8
Layer 1
 62
    40
370
    13
100
AcDbVertex
100
AcDb2dVertex
 10
200.9789383521314
 20
371.931201695129
 30
0.0
  0
VERTEX
  5
220
330
1FF
100
AcDbEntity
  8
Layer 1
 62
    40
370
    13
100
AcDbVertex
100
AcDb2dVertex
 10
201.2439092586407
 20
372.8208976041948
 30
0.0
  0
VERTEX
  5
221
330
1FF
100
AcDbEntity
  8
Layer 1
 62
    40
370
    13
100
AcDbVertex
100
AcDb2dVertex
 10
201.3334817412571
 20
373.8510026861313
 30
0.0
  0
SEQEND
  5
222
330
1FF
100
AcDbEntity
  8
Layer 1
 62
    40
370
    13
  0
POLYLINE
  5
223
330
1A7
100
AcDbEntity
  8
Layer 1
 62
    40
370
    13
100
AcDb2dPolyline
 66
     1
 10
0.0
 20
0.0
 30
0.0
  0
VERTEX
  5
224
330
223
100
AcDbEntity
  8
Layer 1
 62
    40
370
    13
100
AcDbVertex
100
AcDb2dVertex
 10
201.3334817412571
 20
511.8463694051047
 30
0.0
  0
VERTEX
  5
225
330
223
100
AcDbEntity
  8
Layer 1
 62
    40
370
    13
100
AcDbVertex
100
AcDb2dVertex
 10
201.2439092586407
 20
512.9798488834455
 30
0.0
  0
VERTEX
  5
226
330
223
100
AcDbEntity
  8
Layer 1
 62
    40
370
    13
100
AcDbVertex
100
AcDb2dVertex
 10
200.9789383521314
 20
514.1754262079078
 30
0.0
  0
VERTEX
  5
227
330
223
100
AcDbEntity
  8
Layer 1
 62
    40
370
    13
100
AcDbVertex
100
AcDb2dVertex
 10
200.547526269991
 20
515.3900376849263
 30
0.0
  0
VERTEX
  5
228
330
223
100
AcDbEntity
  8
Layer 1
 62
    40
370
    13
100
AcDbVertex
100
AcDb2dVertex
 10
199.9661233431615
 20
516.58031817508
 30
0.0
  0
VERTEX
  5
229
330
223
100
AcDbEntity
  8
Layer 1
 62
    40
370
    13
100
AcDbVertex
100
AcDb2dVertex
 10
199.2549264439252
 20
517.7021273924645
 30
0.0
  0
VERTEX
  5
22A
330
223
100
AcDbEntity
  8
Layer 1
 62
    40
370
    13
100
AcDbVertex
100
AcDb2dVertex
 10
198.4400321705829
 20
518.7160189937736
 30
0.0
  0
VERTEX
  5
22B
330
223
100
AcDbEntity
  8
Layer 1
 62
    40
370
    13
100
AcDbVertex
100
AcDb2dVertex
 10
197.5506807710657
 20
519.5849151388471
 30
0.0
  0
VERTEX
  5
22C
330
223
100
AcDbEntity
  8
Layer 1
 62
    40
370
    13
100
AcDbVertex
100
AcDb2dVertex
 10
196.619342270322
 20
520.2770348218338
 30
0.0
  0
VERTEX
  5
22D
330
223
100
AcDbEntity
  8
Layer 1
 62
    40
370
    13
100
AcDbVertex
100
AcDb2dVertex
 10
195.6791757123973
 20
520.7681331832562
 30
0.0
  0
VERTEX
  5
22E
330
223
100
AcDbEntity
  8
Layer 1
 62
    40
370
    13
100
AcDbVertex
100
AcDb2dVertex
 10
194.7647612432249
 20
521.0397789622681
 30
0.0
  0
VERTEX
  5
22F
330
223
100
AcDbEntity
  8
Layer 1
 62
    40
370
    13
100
AcDbVertex
100
AcDb2dVertex
 10
193.9089564609952
 20
521.0824550825917
 30
0.0
  0
VERTEX
  5
230
330
223
100
AcDbEntity
  8
Layer 1
 62
    40
370
    13
100
AcDbVertex
100
AcDb2dVertex
 10
193.14233658814
 20
520.8947835060327
 30
0.0
  0
VERTEX
  5
231
330
223
100
AcDbEntity
  8
Layer 1
 62
    40
370
    13
100
AcDbVertex
100
AcDb2dVertex
 10
192.4928930254768
 20
520.4830945955453
 30
0.0
  0
VERTEX
  5
232
330
223
100
AcDbEntity
  8
Layer 1
 62
    40
370
    13
100
AcDbVertex
100
AcDb2dVertex
 10
191.9841816133861
 20
519.8625467712646
 30
0.0
  0
VERTEX
  5
233
330
223
100
AcDbEntity
  8
Layer 1
 62
    40
370
    13
100
AcDbVertex
100
AcDb2dVertex
 10
191.6345905490204
 20
519.0557484723128
 30
0.0
  0
VERTEX
  5
234
330
223
100
AcDbEntity
  8
Layer 1
 62
    40
370
    13
100
AcDbVertex
100
AcDb2dVertex
 10
191.4564360487394
 20
518.091595437072
 30
0.0
  0
VERTEX
  5
235
330
223
100
AcDbEntity
  8
Layer 1
 62
    40
370
    13
100
AcDbVertex
100
AcDb2dVertex
 10
191.4564360487394
 20
517.0050553847178
 30
0.0
  0
VERTEX
  5
236
330
223
100
AcDbEntity
  8
Layer 1
 62
    40
370
    13
100
AcDbVertex
100
AcDb2dVertex
 10
191.6345905490204
 20
515.8352301490077
 30
0.0
  0
VERTEX
  5
237
330
223
100
AcDbEntity
  8
Layer 1
 62
    40
370
    13
100
AcDbVertex
100
AcDb2dVertex
 10
191.9841816133861
 20
514.6244944044101
 30
0.0
  0
VERTEX
  5
238
330
223
100
AcDbEntity
  8
Layer 1
 62
    40
370
    13
100
AcDbVertex
100
AcDb2dVertex
 10
192.4928930254768
 20
513.416600863588
 30
0.0
  0
VERTEX
  5
239
330
223
100
AcDbEntity
  8
Layer 1
 62
    40
370
    13
100
AcDbVertex
100
AcDb2dVertex
 10
193.14233658814
 20
512.2552591755102
 30
0.0
  0
VERTEX
  5
23A
330
223
100
AcDbEntity
  8
Layer 1
 62
    40
370
    13
100
AcDbVertex
100
AcDb2dVertex
 10
193.9089564609952
 20
511.1824564414035
 30
0.0
  0
VERTEX
  5
23B
330
223
100
AcDbEntity
  8
Layer 1
 62
    40
370
    13
100
AcDbVertex
100
AcDb2dVertex
 10
194.7647612432249
 20
510.2369930491702
 30
0.0
  0
VERTEX
  5
23C
330
223
100
AcDbEntity
  8
Layer 1
 62
    40
370
    13
100
AcDbVertex
100
AcDb2dVertex
 10
195.6791757123973
 20
509.4527601256466
 30
0.0
  0
VERTEX
  5
23D
330
223
100
AcDbEntity
  8
Layer 1
 62
    40
370
    13
100
AcDbVertex
100
AcDb2dVertex
 10
196.619342270322
 20
508.8583519633603
 30
0.0
  0
VERTEX
  5
23E
330
223
100
AcDbEntity
  8
Layer 1
 62
    40
370
    13
100
AcDbVertex
100
AcDb2dVertex
 10
197.5506807710657
 20
508.4756018549491
 30
0.0
  0
VERTEX
  5
23F
330
223
100
AcDbEntity
  8
Layer 1
 62
    40
370
    13
100
AcDbVertex
100
AcDb2dVertex
 10
198.4400321705829
 20
508.3175150358697
 30
0.0
  0
VERTEX
  5
240
330
223
100
AcDbEntity
  8
Layer 1
 62
    40
370
    13
100
AcDbVertex
100
AcDb2dVertex
 10
199.2549264439252
 20
508.390551060157
 30
0.0
  0
VERTEX
  5
241
330
223
100
AcDbEntity
  8
Layer 1
 62
    40
370
    13
100
AcDbVertex
100
AcDb2dVertex
 10
199.9661233431615
 20
508.6914801507936
 30
0.0
  0
VERTEX
  5
242
330
223
100
AcDbEntity
  8
Layer 1
 62
    40
370
    13
100
AcDbVertex
100
AcDb2dVertex
 10
200.547526269991
 20
509.2097086391623
 30
0.0
  0
VERTEX
  5
243
330
223
100
AcDbEntity
  8
Layer 1
 62
    40
370
    13
100
AcDbVertex
100
AcDb2dVertex
 10
200.9789383521314
 20
509.9265468822556
 30
0.0
  0
VERTEX
  5
244
330
223
100
AcDbEntity
  8
Layer 1
 62
    40
370
    13
100
AcDbVertex
100
AcDb2dVertex
 10
201.2439092586407
 20
510.8162427913214
 30
0.0
  0
VERTEX
  5
245
330
223
100
AcDbEntity
  8
Layer 1
 62
    40
370
    13
100
AcDbVertex
100
AcDb2dVertex
 10
201.3334817412571
 20
511.8463694051047
 30
0.0
  0
SEQEND
  5
246
330
223
100
AcDbEntity
  8
Layer 1
 62
    40
370
    13
  0
POLYLINE
  5
247
330
1A7
100
AcDbEntity
  8
Layer 1
 62
    40
370
    13
100
AcDb2dPolyline
 66
     1
 10
0.0
 20
0.0
 30
0.0
  0
VERTEX
  5
248
330
247
100
AcDbEntity
  8
Layer 1
 62
    40
370
    13
100
AcDbVertex
100
AcDb2dVertex
 10
201.3334817412571
 20
333.0240373643068
 30
0.0
  0
VERTEX
  5
249
330
247
100
AcDbEntity
  8
Layer 1
 62
    40
370
    13
100
AcDbVertex
100
AcDb2dVertex
 10
201.2439092586407
 20
334.157172333099
 30
0.0
  0
VERTEX
  5
24A
330
247
100
AcDbEntity
  8
Layer 1
 62
    40
370
    13
100
AcDbVertex
100
AcDb2dVertex
 10
200.9789383521314
 20
335.3530726352631
 30
0.0
  0
VERTEX
  5
24B
330
247
100
AcDbEntity
  8
Layer 1
 62
    40
370
    13
100
AcDbVertex
100
AcDb2dVertex
 10
200.547526269991
 20
336.5676841122815
 30
0.0
  0
VERTEX
  5
24C
330
247
100
AcDbEntity
  8
Layer 1
 62
    40
370
    13
100
AcDbVertex
100
AcDb2dVertex
 10
199.9661233431615
 20
337.7576200928868
 30
0.0
  0
VERTEX
  5
24D
330
247
100
AcDbEntity
  8
Layer 1
 62
    40
370
    13
100
AcDbVertex
100
AcDb2dVertex
 10
199.2549264439252
 20
338.8797953516666
 30
0.0
  0
VERTEX
  5
24E
330
247
100
AcDbEntity
  8
Layer 1
 62
    40
370
    13
100
AcDbVertex
100
AcDb2dVertex
 10
198.4400321705829
 20
339.8936869529757
 30
0.0
  0
VERTEX
  5
24F
330
247
100
AcDbEntity
  8
Layer 1
 62
    40
370
    13
100
AcDbVertex
100
AcDb2dVertex
 10
197.5506807710657
 20
340.7622170566539
 30
0.0
  0
VERTEX
  5
250
330
247
100
AcDbEntity
  8
Layer 1
 62
    40
370
    13
100
AcDbVertex
100
AcDb2dVertex
 10
196.619342270322
 20
341.4547243128827
 30
0.0
  0
VERTEX
  5
251
330
247
100
AcDbEntity
  8
Layer 1
 62
    40
370
    13
100
AcDbVertex
100
AcDb2dVertex
 10
195.6791757123973
 20
341.9458011424583
 30
0.0
  0
VERTEX
  5
252
330
247
100
AcDbEntity
  8
Layer 1
 62
    40
370
    13
100
AcDbVertex
100
AcDb2dVertex
 10
194.7647612432249
 20
342.2174253896234
 30
0.0
  0
VERTEX
  5
253
330
247
100
AcDbEntity
  8
Layer 1
 62
    40
370
    13
100
AcDbVertex
100
AcDb2dVertex
 10
193.9089564609952
 20
342.2601230417937
 30
0.0
  0
VERTEX
  5
254
330
247
100
AcDbEntity
  8
Layer 1
 62
    40
370
    13
100
AcDbVertex
100
AcDb2dVertex
 10
193.14233658814
 20
342.072429933388
 30
0.0
  0
VERTEX
  5
255
330
247
100
AcDbEntity
  8
Layer 1
 62
    40
370
    13
100
AcDbVertex
100
AcDb2dVertex
 10
192.4928930254768
 20
341.6607410229007
 30
0.0
  0
VERTEX
  5
256
330
247
100
AcDbEntity
  8
Layer 1
 62
    40
370
    13
100
AcDbVertex
100
AcDb2dVertex
 10
191.9841816133861
 20
341.0402147304668
 30
0.0
  0
VERTEX
  5
257
330
247
100
AcDbEntity
  8
Layer 1
 62
    40
370
    13
100
AcDbVertex
100
AcDb2dVertex
 10
191.6345905490204
 20
340.2334164315149
 30
0.0
  0
VERTEX
  5
258
330
247
100
AcDbEntity
  8
Layer 1
 62
    40
370
    13
100
AcDbVertex
100
AcDb2dVertex
 10
191.4564360487394
 20
339.2692633962741
 30
0.0
  0
VERTEX
  5
259
330
247
100
AcDbEntity
  8
Layer 1
 62
    40
370
    13
100
AcDbVertex
100
AcDb2dVertex
 10
191.4564360487394
 20
338.1827018120731
 30
0.0
  0
VERTEX
  5
25A
330
247
100
AcDbEntity
  8
Layer 1
 62
    40
370
    13
100
AcDbVertex
100
AcDb2dVertex
 10
191.6345905490204
 20
337.0128981082097
 30
0.0
  0
VERTEX
  5
25B
330
247
100
AcDbEntity
  8
Layer 1
 62
    40
370
    13
100
AcDbVertex
100
AcDb2dVertex
 10
191.9841816133861
 20
335.8021623636122
 30
0.0
  0
VERTEX
  5
25C
330
247
100
AcDbEntity
  8
Layer 1
 62
    40
370
    13
100
AcDbVertex
100
AcDb2dVertex
 10
192.4928930254768
 20
334.5942472909433
 30
0.0
  0
VERTEX
  5
25D
330
247
100
AcDbEntity
  8
Layer 1
 62
    40
370
    13
100
AcDbVertex
100
AcDb2dVertex
 10
193.14233658814
 20
333.4329056028656
 30
0.0
  0
VERTEX
  5
25E
330
247
100
AcDbEntity
  8
Layer 1
 62
    40
370
    13
100
AcDbVertex
100
AcDb2dVertex
 10
193.9089564609952
 20
332.3601028687588
 30
0.0
  0
VERTEX
  5
25F
330
247
100
AcDbEntity
  8
Layer 1
 62
    40
370
    13
100
AcDbVertex
100
AcDb2dVertex
 10
194.7647612432249
 20
331.4146610083723
 30
0.0
  0
VERTEX
  5
260
330
247
100
AcDbEntity
  8
Layer 1
 62
    40
370
    13
100
AcDbVertex
100
AcDb2dVertex
 10
195.6791757123973
 20
330.6304496166955
 30
0.0
  0
VERTEX
  5
261
330
247
100
AcDbEntity
  8
Layer 1
 62
    40
370
    13
100
AcDbVertex
100
AcDb2dVertex
 10
196.619342270322
 20
330.0360199225624
 30
0.0
  0
VERTEX
  5
262
330
247
100
AcDbEntity
  8
Layer 1
 62
    40
370
    13
100
AcDbVertex
100
AcDb2dVertex
 10
197.5506807710657
 20
329.6529037727559
 30
0.0
  0
VERTEX
  5
263
330
247
100
AcDbEntity
  8
Layer 1
 62
    40
370
    13
100
AcDbVertex
100
AcDb2dVertex
 10
198.4400321705829
 20
329.4952045269185
 30
0.0
  0
VERTEX
  5
264
330
247
100
AcDbEntity
  8
Layer 1
 62
    40
370
    13
100
AcDbVertex
100
AcDb2dVertex
 10
199.2549264439252
 20
329.5678745098106
 30
0.0
  0
VERTEX
  5
265
330
247
100
AcDbEntity
  8
Layer 1
 62
    40
370
    13
100
AcDbVertex
100
AcDb2dVertex
 10
199.9661233431615
 20
329.8691481099956
 30
0.0
  0
VERTEX
  5
266
330
247
100
AcDbEntity
  8
Layer 1
 62
    40
370
    13
100
AcDbVertex
100
AcDb2dVertex
 10
200.547526269991
 20
330.3873765983644
 30
0.0
  0
VERTEX
  5
267
330
247
100
AcDbEntity
  8
Layer 1
 62
    40
370
    13
100
AcDbVertex
100
AcDb2dVertex
 10
200.9789383521314
 20
331.1042148414577
 30
0.0
  0
VERTEX
  5
268
330
247
100
AcDbEntity
  8
Layer 1
 62
    40
370
    13
100
AcDbVertex
100
AcDb2dVertex
 10
201.2439092586407
 20
331.9939322823703
 30
0.0
  0
VERTEX
  5
269
330
247
100
AcDbEntity
  8
Layer 1
 62
    40
370
    13
100
AcDbVertex
100
AcDb2dVertex
 10
201.3334817412571
 20
333.0240373643068
 30
0.0
  0
SEQEND
  5
26A
330
247
100
AcDbEntity
  8
Layer 1
 62
    40
370
    13
  0
POLYLINE
  5
26B
330
1A7
100
AcDbEntity
  8
Layer 1
 62
    40
370
    13
100
AcDb2dPolyline
 66
     1
 10
0.0
 20
0.0
 30
0.0
  0
VERTEX
  5
26C
330
26B
100
AcDbEntity
  8
Layer 1
 62
    40
370
    13
100
AcDbVertex
100
AcDb2dVertex
 10
201.3334817412571
 20
552.6733347269292
 30
0.0
  0
VERTEX
  5
26D
330
26B
100
AcDbEntity
  8
Layer 1
 62
    40
370
    13
100
AcDbVertex
100
AcDb2dVertex
 10
201.2439092586407
 20
553.8068142052699
 30
0.0
  0
VERTEX
  5
26E
330
26B
100
AcDbEntity
  8
Layer 1
 62
    40
370
    13
100
AcDbVertex
100
AcDb2dVertex
 10
200.9789383521314
 20
555.0023915297323
 30
0.0
  0
VERTEX
  5
26F
330
26B
100
AcDbEntity
  8
Layer 1
 62
    40
370
    13
100
AcDbVertex
100
AcDb2dVertex
 10
200.547526269991
 20
556.2173475162992
 30
0.0
  0
VERTEX
  5
270
330
26B
100
AcDbEntity
  8
Layer 1
 62
    40
370
    13
100
AcDbVertex
100
AcDb2dVertex
 10
199.9661233431615
 20
557.4072834969045
 30
0.0
  0
VERTEX
  5
271
330
26B
100
AcDbEntity
  8
Layer 1
 62
    40
370
    13
100
AcDbVertex
100
AcDb2dVertex
 10
199.2549264439252
 20
558.5294372238376
 30
0.0
  0
VERTEX
  5
272
330
26B
100
AcDbEntity
  8
Layer 1
 62
    40
370
    13
100
AcDbVertex
100
AcDb2dVertex
 10
198.4400321705829
 20
559.542984315598
 30
0.0
  0
VERTEX
  5
273
330
26B
100
AcDbEntity
  8
Layer 1
 62
    40
370
    13
100
AcDbVertex
100
AcDb2dVertex
 10
197.5506807710657
 20
560.4118804606716
 30
0.0
  0
VERTEX
  5
274
330
26B
100
AcDbEntity
  8
Layer 1
 62
    40
370
    13
100
AcDbVertex
100
AcDb2dVertex
 10
196.619342270322
 20
561.1040432073519
 30
0.0
  0
VERTEX
  5
275
330
26B
100
AcDbEntity
  8
Layer 1
 62
    40
370
    13
100
AcDbVertex
100
AcDb2dVertex
 10
195.6791757123973
 20
561.5950985050807
 30
0.0
  0
VERTEX
  5
276
330
26B
100
AcDbEntity
  8
Layer 1
 62
    40
370
    13
100
AcDbVertex
100
AcDb2dVertex
 10
194.7647612432249
 20
561.8667442840926
 30
0.0
  0
VERTEX
  5
277
330
26B
100
AcDbEntity
  8
Layer 1
 62
    40
370
    13
100
AcDbVertex
100
AcDb2dVertex
 10
193.9089564609952
 20
561.9094204044162
 30
0.0
  0
VERTEX
  5
278
330
26B
100
AcDbEntity
  8
Layer 1
 62
    40
370
    13
100
AcDbVertex
100
AcDb2dVertex
 10
193.14233658814
 20
561.7217488278571
 30
0.0
  0
VERTEX
  5
279
330
26B
100
AcDbEntity
  8
Layer 1
 62
    40
370
    13
100
AcDbVertex
100
AcDb2dVertex
 10
192.4928930254768
 20
561.3100599173698
 30
0.0
  0
VERTEX
  5
27A
330
26B
100
AcDbEntity
  8
Layer 1
 62
    40
370
    13
100
AcDbVertex
100
AcDb2dVertex
 10
191.9841816133861
 20
560.6898566026377
 30
0.0
  0
VERTEX
  5
27B
330
26B
100
AcDbEntity
  8
Layer 1
 62
    40
370
    13
100
AcDbVertex
100
AcDb2dVertex
 10
191.6345905490204
 20
559.8827137941372
 30
0.0
  0
VERTEX
  5
27C
330
26B
100
AcDbEntity
  8
Layer 1
 62
    40
370
    13
100
AcDbVertex
100
AcDb2dVertex
 10
191.4564360487394
 20
558.9185607588965
 30
0.0
  0
VERTEX
  5
27D
330
26B
100
AcDbEntity
  8
Layer 1
 62
    40
370
    13
100
AcDbVertex
100
AcDb2dVertex
 10
191.4564360487394
 20
557.8320207065423
 30
0.0
  0
VERTEX
  5
27E
330
26B
100
AcDbEntity
  8
Layer 1
 62
    40
370
    13
100
AcDbVertex
100
AcDb2dVertex
 10
191.6345905490204
 20
556.6621954708321
 30
0.0
  0
VERTEX
  5
27F
330
26B
100
AcDbEntity
  8
Layer 1
 62
    40
370
    13
100
AcDbVertex
100
AcDb2dVertex
 10
191.9841816133861
 20
555.4514597262346
 30
0.0
  0
VERTEX
  5
280
330
26B
100
AcDbEntity
  8
Layer 1
 62
    40
370
    13
100
AcDbVertex
100
AcDb2dVertex
 10
192.4928930254768
 20
554.2435661854125
 30
0.0
  0
VERTEX
  5
281
330
26B
100
AcDbEntity
  8
Layer 1
 62
    40
370
    13
100
AcDbVertex
100
AcDb2dVertex
 10
193.14233658814
 20
553.0822244973348
 30
0.0
  0
VERTEX
  5
282
330
26B
100
AcDbEntity
  8
Layer 1
 62
    40
370
    13
100
AcDbVertex
100
AcDb2dVertex
 10
193.9089564609952
 20
552.0094217632279
 30
0.0
  0
VERTEX
  5
283
330
26B
100
AcDbEntity
  8
Layer 1
 62
    40
370
    13
100
AcDbVertex
100
AcDb2dVertex
 10
194.7647612432249
 20
551.0639583709947
 30
0.0
  0
VERTEX
  5
284
330
26B
100
AcDbEntity
  8
Layer 1
 62
    40
370
    13
100
AcDbVertex
100
AcDb2dVertex
 10
195.6791757123973
 20
550.2797254474712
 30
0.0
  0
VERTEX
  5
285
330
26B
100
AcDbEntity
  8
Layer 1
 62
    40
370
    13
100
AcDbVertex
100
AcDb2dVertex
 10
196.619342270322
 20
549.6856617947334
 30
0.0
  0
VERTEX
  5
286
330
26B
100
AcDbEntity
  8
Layer 1
 62
    40
370
    13
100
AcDbVertex
100
AcDb2dVertex
 10
197.5506807710657
 20
549.3025671767736
 30
0.0
  0
VERTEX
  5
287
330
26B
100
AcDbEntity
  8
Layer 1
 62
    40
370
    13
100
AcDbVertex
100
AcDb2dVertex
 10
198.4400321705829
 20
549.1445234213878
 30
0.0
  0
VERTEX
  5
288
330
26B
100
AcDbEntity
  8
Layer 1
 62
    40
370
    13
100
AcDbVertex
100
AcDb2dVertex
 10
199.2549264439252
 20
549.2175163819815
 30
0.0
  0
VERTEX
  5
289
330
26B
100
AcDbEntity
  8
Layer 1
 62
    40
370
    13
100
AcDbVertex
100
AcDb2dVertex
 10
199.9661233431615
 20
549.518445472618
 30
0.0
  0
VERTEX
  5
28A
330
26B
100
AcDbEntity
  8
Layer 1
 62
    40
370
    13
100
AcDbVertex
100
AcDb2dVertex
 10
200.547526269991
 20
550.0366739609867
 30
0.0
  0
VERTEX
  5
28B
330
26B
100
AcDbEntity
  8
Layer 1
 62
    40
370
    13
100
AcDbVertex
100
AcDb2dVertex
 10
200.9789383521314
 20
550.7538997773222
 30
0.0
  0
VERTEX
  5
28C
330
26B
100
AcDbEntity
  8
Layer 1
 62
    40
370
    13
100
AcDbVertex
100
AcDb2dVertex
 10
201.2439092586407
 20
551.6432511768395
 30
0.0
  0
VERTEX
  5
28D
330
26B
100
AcDbEntity
  8
Layer 1
 62
    40
370
    13
100
AcDbVertex
100
AcDb2dVertex
 10
201.3334817412571
 20
552.6733347269292
 30
0.0
  0
SEQEND
  5
28E
330
26B
100
AcDbEntity
  8
Layer 1
 62
    40
370
    13
  0
POLYLINE
  5
28F
330
1A7
100
AcDbEntity
  8
Layer 1
 62
    40
370
    13
100
AcDb2dPolyline
 66
     1
 10
0.0
 20
0.0
 30
0.0
  0
VERTEX
  5
290
330
28F
100
AcDbEntity
  8
Layer 1
 62
    40
370
    13
100
AcDbVertex
100
AcDb2dVertex
 10
178.7059654030555
 20
584.5164814881741
 30
0.0
  0
VERTEX
  5
291
330
28F
100
AcDbEntity
  8
Layer 1
 62
    40
370
    13
100
AcDbVertex
100
AcDb2dVertex
 10
178.7059654030555
 20
327.3058678778891
 30
0.0
  0
SEQEND
  5
292
330
28F
100
AcDbEntity
  8
Layer 1
 62
    40
370
    13
  0
POLYLINE
  5
293
330
1A7
100
AcDbEntity
  8
Layer 1
 62
    40
370
    13
100
AcDb2dPolyline
 66
     1
 10
0.0
 20
0.0
 30
0.0
  0
VERTEX
  5
294
330
293
100
AcDbEntity
  8
Layer 1
 62
    40
370
    13
100
AcDbVertex
100
AcDb2dVertex
 10
178.7059654030555
 20
327.3058678778891
 30
0.0
  0
VERTEX
  5
295
330
293
100
AcDbEntity
  8
Layer 1
 62
    40
370
    13
100
AcDbVertex
100
AcDb2dVertex
 10
214.0613870115127
 20
306.8959164398492
 30
0.0
  0
SEQEND
  5
296
330
293
100
AcDbEntity
  8
Layer 1
 62
    40
370
    13
  0
POLYLINE
  5
297
330
1A7
100
AcDbEntity
  8
Layer 1
 62
    40
370
    13
100
AcDb2dPolyline
 66
     1
 10
0.0
 20
0.0
 30
0.0
  0
VERTEX
  5
298
330
297
100
AcDbEntity
  8
Layer 1
 62
    40
370
    13
100
AcDbVertex
100
AcDb2dVertex
 10
214.0613870115127
 20
306.8959164398492
 30
0.0
  0
VERTEX
  5
299
330
297
100
AcDbEntity
  8
Layer 1
 62
    40
370
    13
100
AcDbVertex
100
AcDb2dVertex
 10
214.0613870115127
 20
564.1061855405857
 30
0.0
  0
SEQEND
  5
29A
330
297
100
AcDbEntity
  8
Layer 1
 62
    40
370
    13
  0
POLYLINE
  5
29B
330
1A7
100
AcDbEntity
  8
Layer 1
 62
    40
370
    13
100
AcDb2dPolyline
 66
     1
 10
0.0
 20
0.0
 30
0.0
  0
VERTEX
  5
29C
330
29B
100
AcDbEntity
  8
Layer 1
 62
    40
370
    13
100
AcDbVertex
100
AcDb2dVertex
 10
214.0613870115127
 20
564.1061855405857
 30
0.0
  0
VERTEX
  5
29D
330
29B
100
AcDbEntity
  8
Layer 1
 62
    40
370
    13
100
AcDbVertex
100
AcDb2dVertex
 10
178.7059654030555
 20
584.5164814881741
 30
0.0
  0
SEQEND
  5
29E
330
29B
100
AcDbEntity
  8
Layer 1
 62
    40
370
    13
  0
ENDBLK
  5
1AA
330
1A7
100
AcDbEntity
  8
0
100
AcDbBlockEnd
  0
BLOCK
  5
2A1
330
29F
100
AcDbEntity
  8
0
100
AcDbBlockBegin
  2
block 8
 70
     0
 10
0.0
 20
0.0
 30
0.0
  3
block 8
  1

  0
POLYLINE
  5
2A3
330
29F
100
AcDbEntity
  8
Layer 1
370
     0
100
AcDb2dPolyline
 66
     1
 10
0.0
 20
0.0
 30
0.0
  0
VERTEX
  5
2A4
330
2A3
100
AcDbEntity
  8
Layer 1
370
     0
100
AcDbVertex
100
AcDb2dVertex
 10
204.963797119533
 20
421.6457894733704
 30
0.0
  0
VERTEX
  5
2A5
330
2A3
100
AcDbEntity
  8
Layer 1
370
     0
100
AcDbVertex
100
AcDb2dVertex
 10
204.963797119533
 20
442.2875984162284
 30
0.0
  0
VERTEX
  5
2A6
330
2A3
100
AcDbEntity
  8
Layer 1
370
     0
100
AcDbVertex
100
AcDb2dVertex
 10
206.9399900172578
 20
442.2875984162284
 30
0.0
  0
VERTEX
  5
2A7
330
2A3
100
AcDbEntity
  8
Layer 1
370
     0
100
AcDbVertex
100
AcDb2dVertex
 10
206.9399900172578
 20
446.9453675122862
 30
0.0
  0
VERTEX
  5
2A8
330
2A3
100
AcDbEntity
  8
Layer 1
370
     0
100
AcDbVertex
100
AcDb2dVertex
 10
202.2822209212
 20
446.9453675122862
 30
0.0
  0
VERTEX
  5
2A9
330
2A3
100
AcDbEntity
  8
Layer 1
370
     0
100
AcDbVertex
100
AcDb2dVertex
 10
202.2822209212
 20
442.2875984162284
 30
0.0
  0
VERTEX
  5
2AA
330
2A3
100
AcDbEntity
  8
Layer 1
370
     0
100
AcDbVertex
100
AcDb2dVertex
 10
204.2582415641538
 20
442.2875984162284
 30
0.0
  0
VERTEX
  5
2AB
330
2A3
100
AcDbEntity
  8
Layer 1
370
     0
100
AcDbVertex
100
AcDb2dVertex
 10
204.2582415641538
 20
420.9402339179912
 30
0.0
  0
VERTEX
  5
2AC
330
2A3
100
AcDbEntity
  8
Layer 1
370
     0
100
AcDbVertex
100
AcDb2dVertex
 10
303.313694013348
 20
420.9402339179912
 30
0.0
  0
VERTEX
  5
2AD
330
2A3
100
AcDbEntity
  8
Layer 1
370
     0
100
AcDbVertex
100
AcDb2dVertex
 10
303.313694013348
 20
421.6457894733704
 30
0.0
  0
VERTEX
  5
2AE
330
2A3
100
AcDbEntity
  8
Layer 1
370
     0
100
AcDbVertex
100
AcDb2dVertex
 10
204.963797119533
 20
421.6457894733704
 30
0.0
  0
SEQEND
  5
2B0
330
2A3
100
AcDbEntity
  8
Layer 1
370
     0
  0
HATCH
  5
2AF
330
29F
100
AcDbEntity
  8
Layer 1
 62
     7
100
AcDbHatch
 10
0.0
 20
0.0
 30
0.0
210
0.0
220
0.0
230
1.0
  2
SOLID
 70
     1
 71
     0
 91
        1
 92
        1
 93
       10
 72
     1
 10
204.963797119533
 20
421.6457894733704
 11
204.963797119533
 21
442.2875984162284
 72
     1
 10
204.963797119533
 20
442.2875984162284
 11
206.9399900172578
 21
442.2875984162284
 72
     1
 10
206.9399900172578
 20
442.2875984162284
 11
206.9399900172578
 21
446.9453675122862
 72
     1
 10
206.9399900172578
 20
446.9453675122862
 11
202.2822209212
 21
446.9453675122862
 72
     1
 10
202.2822209212
 20
446.9453675122862
 11
202.2822209212
 21
442.2875984162284
 72
     1
 10
202.2822209212
 20
442.2875984162284
 11
204.2582415641538
 21
442.2875984162284
 72
     1
 10
204.2582415641538
 20
442.2875984162284
 11
204.2582415641538
 21
420.9402339179912
 72
     1
 10
204.2582415641538
 20
420.9402339179912
 11
303.313694013348
 21
420.9402339179912
 72
     1
 10
303.313694013348
 20
420.9402339179912
 11
303.313694013348
 21
421.6457894733704
 72
     1
 10
303.313694013348
 20
421.6457894733704
 11
204.963797119533
 21
421.6457894733704
 97
        0
 75
     2
 76
     1
 98
        0
  0
INSERT
  5
2B2
330
29F
100
AcDbEntity
  8
Layer 1
100
AcDbBlockReference
  2
block 9
 10
0.0
 20
0.0
 30
0.0
  0
ENDBLK
  5
2A2
330
29F
100
AcDbEntity
  8
0
100
AcDbBlockEnd
  0
BLOCK
  5
2B3
330
2B1
100
AcDbEntity
  8
0
100
AcDbBlockBegin
  2
block 9
 70
     0
 10
0.0
 20
0.0
 30
0.0
  3
block 9
  1

  0
SPLINE
  5
2B5
330
2B1
100
AcDbEntity
  8
Layer 1
370
     0
100
AcDbSpline
210
0.0
220
0.0
230
1.0
 70
    11
 71
     3
 72
    26
 73
    22
 74
     0
 42
0.0000000001
 43
0.0000000001
 12
1.0
 22
0.0
 32
0.0
 13
1.0
 23
0.0
 33
0.0
 40
0.0
 40
0.0
 40
0.0
 40
0.0
 40
1.0
 40
1.0
 40
1.0
 40
2.0
 40
2.0
 40
2.0
 40
3.0
 40
3.0
 40
3.0
 40
4.0
 40
4.0
 40
4.0
 40
5.0
 40
5.0
 40
5.0
 40
6.0
 40
6.0
 40
6.0
 40
7.0
 40
7.0
 40
7.0
 40
7.0
 10
309.0591714722144
 20
424.1792764239031
 30
0.0
 10
310.2446288286889
 20
424.1792764239031
 30
0.0
 10
310.9305473398021
 20
423.5102388806676
 30
0.0
 10
310.9305473398021
 20
422.4856674833543
 30
0.0
 10
310.9305473398021
 20
421.8166299401188
 30
0.0
 10
310.4899196272386
 20
421.3932277049816
 30
0.0
 10
310.1853731863426
 20
421.2409544845335
 30
0.0
 10
310.5577880082981
 20
421.0714557866592
 30
0.0
 10
311.0235649179039
 20
420.6904282259906
 30
0.0
 10
311.0235649179039
 20
419.886170684959
 30
0.0
 10
311.0235649179039
 20
418.7599689708309
 30
0.0
 10
310.2446288286889
 20
418.1501870699416
 30
0.0
 10
309.1690700181938
 20
418.1501870699416
 30
0.0
 10
309.1690700181938
 20
418.1501870699416
 30
0.0
 10
306.6458820847969
 20
418.1501870699416
 30
0.0
 10
306.6458820847969
 20
418.1501870699416
 30
0.0
 10
306.6458820847969
 20
418.1501870699416
 30
0.0
 10
306.6458820847969
 20
424.1792764239031
 30
0.0
 10
306.6458820847969
 20
424.1792764239031
 30
0.0
 10
306.6458820847969
 20
424.1792764239031
 30
0.0
 10
309.0591714722144
 20
424.1792764239031
 30
0.0
 10
309.0591714722144
 20
424.1792764239031
 30
0.0
  0
SPLINE
  5
2B6
330
2B1
100
AcDbEntity
  8
Layer 1
370
     0
100
AcDbSpline
210
0.0
220
0.0
230
1.0
 70
    11
 71
     3
 72
    20
 73
    16
 74
     0
 42
0.0000000001
 43
0.0000000001
 12
1.0
 22
0.0
 32
0.0
 13
1.0
 23
0.0
 33
0.0
 40
0.0
 40
0.0
 40
0.0
 40
0.0
 40
1.0
 40
1.0
 40
1.0
 40
2.0
 40
2.0
 40
2.0
 40
3.0
 40
3.0
 40
3.0
 40
4.0
 40
4.0
 40
4.0
 40
5.0
 40
5.0
 40
5.0
 40
5.0
 10
307.8227267025582
 20
423.1292113199989
 30
0.0
 10
307.8227267025582
 20
423.1292113199989
 30
0.0
 10
307.8227267025582
 20
421.7322251007301
 30
0.0
 10
307.8227267025582
 20
421.7322251007301
 30
0.0
 10
307.8227267025582
 20
421.7322251007301
 30
0.0
 10
308.9830348619903
 20
421.7322251007301
 30
0.0
 10
308.9830348619903
 20
421.7322251007301
 30
0.0
 10
309.4825737073516
 20
421.7322251007301
 30
0.0
 10
309.7533582124922
 20
422.0116223445839
 30
0.0
 10
309.7533582124922
 20
422.4350245797211
 30
0.0
 10
309.7533582124922
 20
422.8498140761452
 30
0.0
 10
309.4825737073516
 20
423.1292113199989
 30
0.0
 10
308.9830348619903
 20
423.1292113199989
 30
0.0
 10
308.9830348619903
 20
423.1292113199989
 30
0.0
 10
307.8227267025582
 20
423.1292113199989
 30
0.0
 10
307.8227267025582
 20
423.1292113199989
 30
0.0
  0
SPLINE
  5
2B7
330
2B1
100
AcDbEntity
  8
Layer 1
370
     0
100
AcDbSpline
210
0.0
220
0.0
230
1.0
 70
    11
 71
     3
 72
    20
 73
    16
 74
     0
 42
0.0000000001
 43
0.0000000001
 12
1.0
 22
0.0
 32
0.0
 13
1.0
 23
0.0
 33
0.0
 40
0.0
 40
0.0
 40
0.0
 40
0.0
 40
1.0
 40
1.0
 40
1.0
 40
2.0
 40
2.0
 40
2.0
 40
3.0
 40
3.0
 40
3.0
 40
4.0
 40
4.0
 40
4.0
 40
5.0
 40
5.0
 40
5.0
 40
5.0
 10
307.8227267025582
 20
420.682159996826
 30
0.0
 10
307.8227267025582
 20
420.682159996826
 30
0.0
 10
307.8227267025582
 20
419.2002521738458
 30
0.0
 10
307.8227267025582
 20
419.2002521738458
 30
0.0
 10
307.8227267025582
 20
419.2002521738458
 30
0.0
 10
309.0591714722144
 20
419.2002521738458
 30
0.0
 10
309.0591714722144
 20
419.2002521738458
 30
0.0
 10
309.5842040241665
 20
419.2002521738458
 30
0.0
 10
309.8467203001425
 20
419.5220240921681
 30
0.0
 10
309.8467203001425
 20
419.9454263273053
 30
0.0
 10
309.8467203001425
 20
420.3603880785037
 30
0.0
 10
309.5842040241665
 20
420.682159996826
 30
0.0
 10
309.0591714722144
 20
420.682159996826
 30
0.0
 10
309.0591714722144
 20
420.682159996826
 30
0.0
 10
307.8227267025582
 20
420.682159996826
 30
0.0
 10
307.8227267025582
 20
420.682159996826
 30
0.0
  0
HATCH
  5
2B8
330
2B1
100
AcDbEntity
  8
Layer 1
 62
     7
100
AcDbHatch
 10
0.0
 20
0.0
 30
0.0
210
0.0
220
0.0
230
1.0
  2
SOLID
 70
     1
 71
     0
 91
        3
 92
        1
 93
        1
 72
     4
 94
        3
 73
     0
 74
     1
 95
       26
 96
       22
 40
0.0
 40
0.0
 40
0.0
 40
0.0
 40
1.0
 40
1.0
 40
1.0
 40
2.0
 40
2.0
 40
2.0
 40
3.0
 40
3.0
 40
3.0
 40
4.0
 40
4.0
 40
4.0
 40
5.0
 40
5.0
 40
5.0
 40
6.0
 40
6.0
 40
6.0
 40
7.0
 40
7.0
 40
7.0
 40
7.0
 10
309.0591714722144
 20
424.1792764239031
 10
310.2446288286889
 20
424.1792764239031
 10
310.9305473398021
 20
423.5102388806676
 10
310.9305473398021
 20
422.4856674833543
 10
310.9305473398021
 20
421.8166299401188
 10
310.4899196272386
 20
421.3932277049816
 10
310.1853731863426
 20
421.2409544845335
 10
310.5577880082981
 20
421.0714557866592
 10
311.0235649179039
 20
420.6904282259906
 10
311.0235649179039
 20
419.886170684959
 10
311.0235649179039
 20
418.7599689708309
 10
310.2446288286889
 20
418.1501870699416
 10
309.1690700181938
 20
418.1501870699416
 10
309.1690700181938
 20
418.1501870699416
 10
306.6458820847969
 20
418.1501870699416
 10
306.6458820847969
 20
418.1501870699416
 10
306.6458820847969
 20
418.1501870699416
 10
306.6458820847969
 20
424.1792764239031
 10
306.6458820847969
 20
424.1792764239031
 10
306.6458820847969
 20
424.1792764239031
 10
309.0591714722144
 20
424.1792764239031
 10
309.0591714722144
 20
424.1792764239031
 97
        0
 92
        1
 93
        1
 72
     4
 94
        3
 73
     0
 74
     1
 95
       20
 96
       16
 40
0.0
 40
0.0
 40
0.0
 40
0.0
 40
1.0
 40
1.0
 40
1.0
 40
2.0
 40
2.0
 40
2.0
 40
3.0
 40
3.0
 40
3.0
 40
4.0
 40
4.0
 40
4.0
 40
5.0
 40
5.0
 40
5.0
 40
5.0
 10
307.8227267025582
 20
423.1292113199989
 10
307.8227267025582
 20
423.1292113199989
 10
307.8227267025582
 20
421.7322251007301
 10
307.8227267025582
 20
421.7322251007301
 10
307.8227267025582
 20
421.7322251007301
 10
308.9830348619903
 20
421.7322251007301
 10
308.9830348619903
 20
421.7322251007301
 10
309.4825737073516
 20
421.7322251007301
 10
309.7533582124922
 20
422.0116223445839
 10
309.7533582124922
 20
422.4350245797211
 10
309.7533582124922
 20
422.8498140761452
 10
309.4825737073516
 20
423.1292113199989
 10
308.9830348619903
 20
423.1292113199989
 10
308.9830348619903
 20
423.1292113199989
 10
307.8227267025582
 20
423.1292113199989
 10
307.8227267025582
 20
423.1292113199989
 97
        0
 92
        1
 93
        1
 72
     4
 94
        3
 73
     0
 74
     1
 95
       20
 96
       16
 40
0.0
 40
0.0
 40
0.0
 40
0.0
 40
1.0
 40
1.0
 40
1.0
 40
2.0
 40
2.0
 40
2.0
 40
3.0
 40
3.0
 40
3.0
 40
4.0
 40
4.0
 40
4.0
 40
5.0
 40
5.0
 40
5.0
 40
5.0
 10
307.8227267025582
 20
420.682159996826
 10
307.8227267025582
 20
420.682159996826
 10
307.8227267025582
 20
419.2002521738458
 10
307.8227267025582
 20
419.2002521738458
 10
307.8227267025582
 20
419.2002521738458
 10
309.0591714722144
 20
419.2002521738458
 10
309.0591714722144
 20
419.2002521738458
 10
309.5842040241665
 20
419.2002521738458
 10
309.8467203001425
 20
419.5220240921681
 10
309.8467203001425
 20
419.9454263273053
 10
309.8467203001425
 20
420.3603880785037
 10
309.5842040241665
 20
420.682159996826
 10
309.0591714722144
 20
420.682159996826
 10
309.0591714722144
 20
420.682159996826
 10
307.8227267025582
 20
420.682159996826
 10
307.8227267025582
 20
420.682159996826
 97
        0
 75
     2
 76
     1
 98
        0
  0
SPLINE
  5
2B9
330
2B1
100
AcDbEntity
  8
Layer 1
370
     0
100
AcDbSpline
210
0.0
220
0.0
230
1.0
 70
    11
 71
     3
 72
    29
 73
    25
 74
     0
 42
0.0000000001
 43
0.0000000001
 12
1.0
 22
0.0
 32
0.0
 13
1.0
 23
0.0
 33
0.0
 40
0.0
 40
0.0
 40
0.0
 40
0.0
 40
1.0
 40
1.0
 40
1.0
 40
2.0
 40
2.0
 40
2.0
 40
3.0
 40
3.0
 40
3.0
 40
4.0
 40
4.0
 40
4.0
 40
5.0
 40
5.0
 40
5.0
 40
6.0
 40
6.0
 40
6.0
 40
7.0
 40
7.0
 40
7.0
 40
8.0
 40
8.0
 40
8.0
 40
8.0
 10
315.8156927378864
 20
423.5949882296047
 30
0.0
 10
316.4168619000625
 20
423.0020872965932
 30
0.0
 10
316.4251301292271
 20
422.31616878548
 30
0.0
 10
316.4251301292271
 20
421.1648178743095
 30
0.0
 10
316.4251301292271
 20
420.0129501988162
 30
0.0
 10
316.4168619000625
 20
419.327031687703
 30
0.0
 10
315.8156927378864
 20
418.73447526424
 30
0.0
 10
315.4005587319137
 20
418.3279539969805
 30
0.0
 10
314.8927516573879
 20
418.0995441663085
 30
0.0
 10
314.1982204075616
 20
418.0995441663085
 30
0.0
 10
313.5040336672837
 20
418.0995441663085
 30
0.0
 10
312.9958820832094
 20
418.3279539969805
 30
0.0
 10
312.5810925867853
 20
418.73447526424
 30
0.0
 10
311.9799234246092
 20
419.3356444264161
 30
0.0
 10
311.9713106858961
 20
420.0129501988162
 30
0.0
 10
311.9713106858961
 20
421.1648178743095
 30
0.0
 10
311.9713106858961
 20
422.31616878548
 30
0.0
 10
311.9799234246092
 20
422.9938190674287
 30
0.0
 10
312.5810925867853
 20
423.5949882296047
 30
0.0
 10
312.9958820832094
 20
424.0011649873157
 30
0.0
 10
313.5040336672837
 20
424.2299193275363
 30
0.0
 10
314.1982204075616
 20
424.2299193275363
 30
0.0
 10
314.8927516573879
 20
424.2299193275363
 30
0.0
 10
315.4005587319137
 20
424.0011649873157
 30
0.0
 10
315.8156927378864
 20
423.5949882296047
 30
0.0
  0
SPLINE
  5
2BA
330
2B1
100
AcDbEntity
  8
Layer 1
370
     0
100
AcDbSpline
210
0.0
220
0.0
230
1.0
 70
    11
 71
     3
 72
    29
 73
    25
 74
     0
 42
0.0000000001
 43
0.0000000001
 12
1.0
 22
0.0
 32
0.0
 13
1.0
 23
0.0
 33
0.0
 40
0.0
 40
0.0
 40
0.0
 40
0.0
 40
1.0
 40
1.0
 40
1.0
 40
2.0
 40
2.0
 40
2.0
 40
3.0
 40
3.0
 40
3.0
 40
4.0
 40
4.0
 40
4.0
 40
5.0
 40
5.0
 40
5.0
 40
6.0
 40
6.0
 40
6.0
 40
7.0
 40
7.0
 40
7.0
 40
8.0
 40
8.0
 40
8.0
 40
8.0
 10
313.4447780249374
 20
422.8580823053098
 30
0.0
 10
313.2160236847168
 20
422.6041787680469
 30
0.0
 10
313.1481553036574
 20
422.31616878548
 30
0.0
 10
313.1481553036574
 20
421.1648178743095
 30
0.0
 10
313.1481553036574
 20
420.0129501988162
 30
0.0
 10
313.2160236847168
 20
419.7335529549625
 30
0.0
 10
313.4447780249374
 20
419.4796494176995
 30
0.0
 10
313.6139322132632
 20
419.2846570132344
 30
0.0
 10
313.8764484892392
 20
419.1492647606641
 30
0.0
 10
314.1982204075616
 20
419.1492647606641
 30
0.0
 10
314.5199923258839
 20
419.1492647606641
 30
0.0
 10
314.7825086018599
 20
419.2846570132344
 30
0.0
 10
314.9520072997342
 20
419.4796494176995
 30
0.0
 10
315.1804171304063
 20
419.7335529549625
 30
0.0
 10
315.2482855114657
 20
420.0129501988162
 30
0.0
 10
315.2482855114657
 20
421.1648178743095
 30
0.0
 10
315.2482855114657
 20
422.31616878548
 30
0.0
 10
315.1804171304063
 20
422.6041787680469
 30
0.0
 10
314.9520072997342
 20
422.8580823053098
 30
0.0
 10
314.7825086018599
 20
423.0530747097749
 30
0.0
 10
314.5199923258839
 20
423.1798542236322
 30
0.0
 10
314.1982204075616
 20
423.1798542236322
 30
0.0
 10
313.8764484892392
 20
423.1798542236322
 30
0.0
 10
313.6139322132632
 20
423.0530747097749
 30
0.0
 10
313.4447780249374
 20
422.8580823053098
 30
0.0
  0
HATCH
  5
2BB
330
2B1
100
AcDbEntity
  8
Layer 1
 62
     7
100
AcDbHatch
 10
0.0
 20
0.0
 30
0.0
210
0.0
220
0.0
230
1.0
  2
SOLID
 70
     1
 71
     0
 91
        2
 92
        1
 93
        1
 72
     4
 94
        3
 73
     0
 74
     1
 95
       29
 96
       25
 40
0.0
 40
0.0
 40
0.0
 40
0.0
 40
1.0
 40
1.0
 40
1.0
 40
2.0
 40
2.0
 40
2.0
 40
3.0
 40
3.0
 40
3.0
 40
4.0
 40
4.0
 40
4.0
 40
5.0
 40
5.0
 40
5.0
 40
6.0
 40
6.0
 40
6.0
 40
7.0
 40
7.0
 40
7.0
 40
8.0
 40
8.0
 40
8.0
 40
8.0
 10
315.8156927378864
 20
423.5949882296047
 10
316.4168619000625
 20
423.0020872965932
 10
316.4251301292271
 20
422.31616878548
 10
316.4251301292271
 20
421.1648178743095
 10
316.4251301292271
 20
420.0129501988162
 10
316.4168619000625
 20
419.327031687703
 10
315.8156927378864
 20
418.73447526424
 10
315.4005587319137
 20
418.3279539969805
 10
314.8927516573879
 20
418.0995441663085
 10
314.1982204075616
 20
418.0995441663085
 10
313.5040336672837
 20
418.0995441663085
 10
312.9958820832094
 20
418.3279539969805
 10
312.5810925867853
 20
418.73447526424
 10
311.9799234246092
 20
419.3356444264161
 10
311.9713106858961
 20
420.0129501988162
 10
311.9713106858961
 20
421.1648178743095
 10
311.9713106858961
 20
422.31616878548
 10
311.9799234246092
 20
422.9938190674287
 10
312.5810925867853
 20
423.5949882296047
 10
312.9958820832094
 20
424.0011649873157
 10
313.5040336672837
 20
424.2299193275363
 10
314.1982204075616
 20
424.2299193275363
 10
314.8927516573879
 20
424.2299193275363
 10
315.4005587319137
 20
424.0011649873157
 10
315.8156927378864
 20
423.5949882296047
 97
        0
 92
        1
 93
        1
 72
     4
 94
        3
 73
     0
 74
     1
 95
       29
 96
       25
 40
0.0
 40
0.0
 40
0.0
 40
0.0
 40
1.0
 40
1.0
 40
1.0
 40
2.0
 40
2.0
 40
2.0
 40
3.0
 40
3.0
 40
3.0
 40
4.0
 40
4.0
 40
4.0
 40
5.0
 40
5.0
 40
5.0
 40
6.0
 40
6.0
 40
6.0
 40
7.0
 40
7.0
 40
7.0
 40
8.0
 40
8.0
 40
8.0
 40
8.0
 10
313.4447780249374
 20
422.8580823053098
 10
313.2160236847168
 20
422.6041787680469
 10
313.1481553036574
 20
422.31616878548
 10
313.1481553036574
 20
421.1648178743095
 10
313.1481553036574
 20
420.0129501988162
 10
313.2160236847168
 20
419.7335529549625
 10
313.4447780249374
 20
419.4796494176995
 10
313.6139322132632
 20
419.2846570132344
 10
313.8764484892392
 20
419.1492647606641
 10
314.1982204075616
 20
419.1492647606641
 10
314.5199923258839
 20
419.1492647606641
 10
314.7825086018599
 20
419.2846570132344
 10
314.9520072997342
 20
419.4796494176995
 10
315.1804171304063
 20
419.7335529549625
 10
315.2482855114657
 20
420.0129501988162
 10
315.2482855114657
 20
421.1648178743095
 10
315.2482855114657
 20
422.31616878548
 10
315.1804171304063
 20
422.6041787680469
 10
314.9520072997342
 20
422.8580823053098
 10
314.7825086018599
 20
423.0530747097749
 10
314.5199923258839
 20
423.1798542236322
 10
314.1982204075616
 20
423.1798542236322
 10
313.8764484892392
 20
423.1798542236322
 10
313.6139322132632
 20
423.0530747097749
 10
313.4447780249374
 20
422.8580823053098
 97
        0
 75
     2
 76
     1
 98
        0
  0
POLYLINE
  5
2BC
330
2B1
100
AcDbEntity
  8
Layer 1
370
     0
100
AcDb2dPolyline
 66
     1
 10
0.0
 20
0.0
 30
0.0
  0
VERTEX
  5
2BD
330
2BC
100
AcDbEntity
  8
Layer 1
370
     0
100
AcDbVertex
100
AcDb2dVertex
 10
322.7158744852933
 20
418.1501870699416
 30
0.0
  0
VERTEX
  5
2BE
330
2BC
100
AcDbEntity
  8
Layer 1
370
     0
100
AcDbVertex
100
AcDb2dVertex
 10
321.7254095332839
 20
418.1501870699416
 30
0.0
  0
VERTEX
  5
2BF
330
2BC
100
AcDbEntity
  8
Layer 1
370
     0
100
AcDbVertex
100
AcDb2dVertex
 10
320.6160887870335
 20
421.799748972241
 30
0.0
  0
VERTEX
  5
2C0
330
2BC
100
AcDbEntity
  8
Layer 1
370
     0
100
AcDbVertex
100
AcDb2dVertex
 10
319.5153807794962
 20
418.1501870699416
 30
0.0
  0
VERTEX
  5
2C1
330
2BC
100
AcDbEntity
  8
Layer 1
370
     0
100
AcDbVertex
100
AcDb2dVertex
 10
318.5331840566515
 20
418.1501870699416
 30
0.0
  0
VERTEX
  5
2C2
330
2BC
100
AcDbEntity
  8
Layer 1
370
     0
100
AcDbVertex
100
AcDb2dVertex
 10
316.9157117263267
 20
424.1792764239031
 30
0.0
  0
VERTEX
  5
2C3
330
2BC
100
AcDbEntity
  8
Layer 1
370
     0
100
AcDbVertex
100
AcDb2dVertex
 10
318.1435437572697
 20
424.1792764239031
 30
0.0
  0
VERTEX
  5
2C4
330
2BC
100
AcDbEntity
  8
Layer 1
370
     0
100
AcDbVertex
100
AcDb2dVertex
 10
319.0750975764813
 20
420.3858817850945
 30
0.0
  0
VERTEX
  5
2C5
330
2BC
100
AcDbEntity
  8
Layer 1
370
     0
100
AcDbVertex
100
AcDb2dVertex
 10
320.1844183227317
 20
424.1792764239031
 30
0.0
  0
VERTEX
  5
2C6
330
2BC
100
AcDbEntity
  8
Layer 1
370
     0
100
AcDbVertex
100
AcDb2dVertex
 10
321.0563719900484
 20
424.1792764239031
 30
0.0
  0
VERTEX
  5
2C7
330
2BC
100
AcDbEntity
  8
Layer 1
370
     0
100
AcDbVertex
100
AcDb2dVertex
 10
322.1656927362989
 20
420.3858817850945
 30
0.0
  0
VERTEX
  5
2C8
330
2BC
100
AcDbEntity
  8
Layer 1
370
     0
100
AcDbVertex
100
AcDb2dVertex
 10
323.0969020459619
 20
424.1792764239031
 30
0.0
  0
VERTEX
  5
2C9
330
2BC
100
AcDbEntity
  8
Layer 1
370
     0
100
AcDbVertex
100
AcDb2dVertex
 10
324.3247340769049
 20
424.1792764239031
 30
0.0
  0
VERTEX
  5
2CA
330
2BC
100
AcDbEntity
  8
Layer 1
370
     0
100
AcDbVertex
100
AcDb2dVertex
 10
322.7158744852933
 20
418.1501870699416
 30
0.0
  0
SEQEND
  5
2CB
330
2BC
100
AcDbEntity
  8
Layer 1
370
     0
  0
HATCH
  5
2CC
330
2B1
100
AcDbEntity
  8
Layer 1
 62
     7
100
AcDbHatch
 10
0.0
 20
0.0
 30
0.0
210
0.0
220
0.0
230
1.0
  2
SOLID
 70
     1
 71
     0
 91
        1
 92
        1
 93
       13
 72
     1
 10
322.7158744852933
 20
418.1501870699416
 11
321.7254095332839
 21
418.1501870699416
 72
     1
 10
321.7254095332839
 20
418.1501870699416
 11
320.6160887870335
 21
421.799748972241
 72
     1
 10
320.6160887870335
 20
421.799748972241
 11
319.5153807794962
 21
418.1501870699416
 72
     1
 10
319.5153807794962
 20
418.1501870699416
 11
318.5331840566515
 21
418.1501870699416
 72
     1
 10
318.5331840566515
 20
418.1501870699416
 11
316.9157117263267
 21
424.1792764239031
 72
     1
 10
316.9157117263267
 20
424.1792764239031
 11
318.1435437572697
 21
424.1792764239031
 72
     1
 10
318.1435437572697
 20
424.1792764239031
 11
319.0750975764813
 21
420.3858817850945
 72
     1
 10
319.0750975764813
 20
420.3858817850945
 11
320.1844183227317
 21
424.1792764239031
 72
     1
 10
320.1844183227317
 20
424.1792764239031
 11
321.0563719900484
 21
424.1792764239031
 72
     1
 10
321.0563719900484
 20
424.1792764239031
 11
322.1656927362989
 21
420.3858817850945
 72
     1
 10
322.1656927362989
 20
420.3858817850945
 11
323.0969020459619
 21
424.1792764239031
 72
     1
 10
323.0969020459619
 20
424.1792764239031
 11
324.3247340769049
 21
424.1792764239031
 72
     1
 10
324.3247340769049
 20
424.1792764239031
 11
322.7158744852933
 21
418.1501870699416
 97
        0
 75
     2
 76
     1
 98
        0
  0
POLYLINE
  5
2CD
330
2B1
100
AcDbEntity
  8
Layer 1
370
     0
100
AcDb2dPolyline
 66
     1
 10
0.0
 20
0.0
 30
0.0
  0
VERTEX
  5
2CE
330
2CD
100
AcDbEntity
  8
Layer 1
370
     0
100
AcDbVertex
100
AcDb2dVertex
 10
330.5393418227471
 20
418.1501870699416
 30
0.0
  0
VERTEX
  5
2CF
330
2CD
100
AcDbEntity
  8
Layer 1
370
     0
100
AcDbVertex
100
AcDb2dVertex
 10
329.3624972049858
 20
418.1501870699416
 30
0.0
  0
VERTEX
  5
2D0
330
2CD
100
AcDbEntity
  8
Layer 1
370
     0
100
AcDbVertex
100
AcDb2dVertex
 10
329.3624972049858
 20
421.6557439809576
 30
0.0
  0
VERTEX
  5
2D1
330
2CD
100
AcDbEntity
  8
Layer 1
370
     0
100
AcDbVertex
100
AcDb2dVertex
 10
328.2108017842668
 20
419.513411353455
 30
0.0
  0
VERTEX
  5
2D2
330
2CD
100
AcDbEntity
  8
Layer 1
370
     0
100
AcDbVertex
100
AcDb2dVertex
 10
327.414984727174
 20
419.513411353455
 30
0.0
  0
VERTEX
  5
2D3
330
2CD
100
AcDbEntity
  8
Layer 1
370
     0
100
AcDbVertex
100
AcDb2dVertex
 10
326.2546765677419
 20
421.6557439809576
 30
0.0
  0
VERTEX
  5
2D4
330
2CD
100
AcDbEntity
  8
Layer 1
370
     0
100
AcDbVertex
100
AcDb2dVertex
 10
326.2546765677419
 20
418.1501870699416
 30
0.0
  0
VERTEX
  5
2D5
330
2CD
100
AcDbEntity
  8
Layer 1
370
     0
100
AcDbVertex
100
AcDb2dVertex
 10
325.0778319499806
 20
418.1501870699416
 30
0.0
  0
VERTEX
  5
2D6
330
2CD
100
AcDbEntity
  8
Layer 1
370
     0
100
AcDbVertex
100
AcDb2dVertex
 10
325.0778319499806
 20
424.1792764239031
 30
0.0
  0
VERTEX
  5
2D7
330
2CD
100
AcDbEntity
  8
Layer 1
370
     0
100
AcDbVertex
100
AcDb2dVertex
 10
326.2377955998642
 20
424.1792764239031
 30
0.0
  0
VERTEX
  5
2D8
330
2CD
100
AcDbEntity
  8
Layer 1
370
     0
100
AcDbVertex
100
AcDb2dVertex
 10
327.8128932557204
 20
421.0545748187815
 30
0.0
  0
VERTEX
  5
2D9
330
2CD
100
AcDbEntity
  8
Layer 1
370
     0
100
AcDbVertex
100
AcDb2dVertex
 10
329.3793781728635
 20
424.1792764239031
 30
0.0
  0
VERTEX
  5
2DA
330
2CD
100
AcDbEntity
  8
Layer 1
370
     0
100
AcDbVertex
100
AcDb2dVertex
 10
330.5393418227471
 20
424.1792764239031
 30
0.0
  0
VERTEX
  5
2DB
330
2CD
100
AcDbEntity
  8
Layer 1
370
     0
100
AcDbVertex
100
AcDb2dVertex
 10
330.5393418227471
 20
418.1501870699416
 30
0.0
  0
SEQEND
  5
2DC
330
2CD
100
AcDbEntity
  8
Layer 1
370
     0
  0
HATCH
  5
2DD
330
2B1
100
AcDbEntity
  8
Layer 1
 62
     7
100
AcDbHatch
 10
0.0
 20
0.0
 30
0.0
210
0.0
220
0.0
230
1.0
  2
SOLID
 70
     1
 71
     0
 91
        1
 92
        1
 93
       13
 72
     1
 10
330.5393418227471
 20
418.1501870699416
 11
329.3624972049858
 21
418.1501870699416
 72
     1
 10
329.3624972049858
 20
418.1501870699416
 11
329.3624972049858
 21
421.6557439809576
 72
     1
 10
329.3624972049858
 20
421.6557439809576
 11
328.2108017842668
 21
419.513411353455
 72
     1
 10
328.2108017842668
 20
419.513411353455
 11
327.414984727174
 21
419.513411353455
 72
     1
 10
327.414984727174
 20
419.513411353455
 11
326.2546765677419
 21
421.6557439809576
 72
     1
 10
326.2546765677419
 20
421.6557439809576
 11
326.2546765677419
 21
418.1501870699416
 72
     1
 10
326.2546765677419
 20
418.1501870699416
 11
325.0778319499806
 21
418.1501870699416
 72
     1
 10
325.0778319499806
 20
418.1501870699416
 11
325.0778319499806
 21
424.1792764239031
 72
     1
 10
325.0778319499806
 20
424.1792764239031
 11
326.2377955998642
 21
424.1792764239031
 72
     1
 10
326.2377955998642
 20
424.1792764239031
 11
327.8128932557204
 21
421.0545748187815
 72
     1
 10
327.8128932557204
 20
421.0545748187815
 11
329.3793781728635
 21
424.1792764239031
 72
     1
 10
329.3793781728635
 20
424.1792764239031
 11
330.5393418227471
 21
424.1792764239031
 72
     1
 10
330.5393418227471
 20
424.1792764239031
 11
330.5393418227471
 21
418.1501870699416
 97
        0
 75
     2
 76
     1
 98
        0
  0
POLYLINE
  5
2DE
330
2B1
100
AcDbEntity
  8
Layer 1
370
     0
100
AcDb2dPolyline
 66
     1
 10
0.0
 20
0.0
 30
0.0
  0
VERTEX
  5
2DF
330
2DE
100
AcDbEntity
  8
Layer 1
370
     0
100
AcDbVertex
100
AcDb2dVertex
 10
336.6013318385927
 20
418.1501870699416
 30
0.0
  0
VERTEX
  5
2E0
330
2DE
100
AcDbEntity
  8
Layer 1
370
     0
100
AcDbVertex
100
AcDb2dVertex
 10
335.3652315784851
 20
418.1501870699416
 30
0.0
  0
VERTEX
  5
2E1
330
2DE
100
AcDbEntity
  8
Layer 1
370
     0
100
AcDbVertex
100
AcDb2dVertex
 10
335.0093532148588
 20
419.2171331417235
 30
0.0
  0
VERTEX
  5
2E2
330
2DE
100
AcDbEntity
  8
Layer 1
370
     0
100
AcDbVertex
100
AcDb2dVertex
 10
332.8758055808436
 20
419.2171331417235
 30
0.0
  0
VERTEX
  5
2E3
330
2DE
100
AcDbEntity
  8
Layer 1
370
     0
100
AcDbVertex
100
AcDb2dVertex
 10
332.5116589880527
 20
418.1501870699416
 30
0.0
  0
VERTEX
  5
2E4
330
2DE
100
AcDbEntity
  8
Layer 1
370
     0
100
AcDbVertex
100
AcDb2dVertex
 10
331.2752142183965
 20
418.1501870699416
 30
0.0
  0
VERTEX
  5
2E5
330
2DE
100
AcDbEntity
  8
Layer 1
370
     0
100
AcDbVertex
100
AcDb2dVertex
 10
333.4769747430196
 20
424.1792764239031
 30
0.0
  0
VERTEX
  5
2E6
330
2DE
100
AcDbEntity
  8
Layer 1
370
     0
100
AcDbVertex
100
AcDb2dVertex
 10
334.3999158235181
 20
424.1792764239031
 30
0.0
  0
VERTEX
  5
2E7
330
2DE
100
AcDbEntity
  8
Layer 1
370
     0
100
AcDbVertex
100
AcDb2dVertex
 10
336.6013318385927
 20
418.1501870699416
 30
0.0
  0
SEQEND
  5
2E8
330
2DE
100
AcDbEntity
  8
Layer 1
370
     0
  0
POLYLINE
  5
2E9
330
2B1
100
AcDbEntity
  8
Layer 1
370
     0
100
AcDb2dPolyline
 66
     1
 10
0.0
 20
0.0
 30
0.0
  0
VERTEX
  5
2EA
330
2E9
100
AcDbEntity
  8
Layer 1
370
     0
100
AcDbVertex
100
AcDb2dVertex
 10
333.1975774991659
 20
420.2077703485071
 30
0.0
  0
VERTEX
  5
2EB
330
2E9
100
AcDbEntity
  8
Layer 1
370
     0
100
AcDbVertex
100
AcDb2dVertex
 10
334.6793130673719
 20
420.2077703485071
 30
0.0
  0
VERTEX
  5
2EC
330
2E9
100
AcDbEntity
  8
Layer 1
370
     0
100
AcDbVertex
100
AcDb2dVertex
 10
333.9424071430769
 20
422.3926499052525
 30
0.0
  0
VERTEX
  5
2ED
330
2E9
100
AcDbEntity
  8
Layer 1
370
     0
100
AcDbVertex
100
AcDb2dVertex
 10
333.1975774991659
 20
420.2077703485071
 30
0.0
  0
SEQEND
  5
2EE
330
2E9
100
AcDbEntity
  8
Layer 1
370
     0
  0
HATCH
  5
2EF
330
2B1
100
AcDbEntity
  8
Layer 1
 62
     7
100
AcDbHatch
 10
0.0
 20
0.0
 30
0.0
210
0.0
220
0.0
230
1.0
  2
SOLID
 70
     1
 71
     0
 91
        2
 92
        1
 93
        8
 72
     1
 10
336.6013318385927
 20
418.1501870699416
 11
335.3652315784851
 21
418.1501870699416
 72
     1
 10
335.3652315784851
 20
418.1501870699416
 11
335.0093532148588
 21
419.2171331417235
 72
     1
 10
335.0093532148588
 20
419.2171331417235
 11
332.8758055808436
 21
419.2171331417235
 72
     1
 10
332.8758055808436
 20
419.2171331417235
 11
332.5116589880527
 21
418.1501870699416
 72
     1
 10
332.5116589880527
 20
418.1501870699416
 11
331.2752142183965
 21
418.1501870699416
 72
     1
 10
331.2752142183965
 20
418.1501870699416
 11
333.4769747430196
 21
424.1792764239031
 72
     1
 10
333.4769747430196
 20
424.1792764239031
 11
334.3999158235181
 21
424.1792764239031
 72
     1
 10
334.3999158235181
 20
424.1792764239031
 11
336.6013318385927
 21
418.1501870699416
 97
        0
 92
        1
 93
        3
 72
     1
 10
333.1975774991659
 20
420.2077703485071
 11
334.6793130673719
 21
420.2077703485071
 72
     1
 10
334.6793130673719
 20
420.2077703485071
 11
333.9424071430769
 21
422.3926499052525
 72
     1
 10
333.9424071430769
 20
422.3926499052525
 11
333.1975774991659
 21
420.2077703485071
 97
        0
 75
     2
 76
     1
 98
        0
  0
SPLINE
  5
2F0
330
2B1
100
AcDbEntity
  8
Layer 1
370
     0
100
AcDbSpline
210
0.0
220
0.0
230
1.0
 70
    11
 71
     3
 72
    47
 73
    43
 74
     0
 42
0.0000000001
 43
0.0000000001
 12
1.0
 22
0.0
 32
0.0
 13
1.0
 23
0.0
 33
0.0
 40
0.0
 40
0.0
 40
0.0
 40
0.0
 40
1.0
 40
1.0
 40
1.0
 40
2.0
 40
2.0
 40
2.0
 40
3.0
 40
3.0
 40
3.0
 40
4.0
 40
4.0
 40
4.0
 40
5.0
 40
5.0
 40
5.0
 40
6.0
 40
6.0
 40
6.0
 40
7.0
 40
7.0
 40
7.0
 40
8.0
 40
8.0
 40
8.0
 40
9.0
 40
9.0
 40
9.0
 40
10.0
 40
10.0
 40
10.0
 40
11.0
 40
11.0
 40
11.0
 40
12.0
 40
12.0
 40
12.0
 40
13.0
 40
13.0
 40
13.0
 40
14.0
 40
14.0
 40
14.0
 40
14.0
 10
341.486477236677
 20
422.3247815241932
 30
0.0
 10
341.486477236677
 20
422.3247815241932
 30
0.0
 10
340.2927516510379
 20
422.3247815241932
 30
0.0
 10
340.2927516510379
 20
422.3247815241932
 30
0.0
 10
340.1738958567968
 20
422.8160521403897
 30
0.0
 10
339.8607366771876
 20
423.1798542236322
 30
0.0
 10
339.2764484828892
 20
423.1798542236322
 30
0.0
 10
338.9546765645669
 20
423.1798542236322
 30
0.0
 10
338.6921602885909
 20
423.0613429389396
 30
0.0
 10
338.5230061002651
 20
422.8666950440229
 30
0.0
 10
338.3028644987576
 20
422.61279150676
 30
0.0
 10
338.2263833789851
 20
422.31616878548
 30
0.0
 10
338.2263833789851
 20
421.1648178743095
 30
0.0
 10
338.2263833789851
 20
420.0129501988162
 30
0.0
 10
338.3028644987576
 20
419.7166719870847
 30
0.0
 10
338.5230061002651
 20
419.4627684498219
 30
0.0
 10
338.6921602885909
 20
419.2677760453567
 30
0.0
 10
338.9546765645669
 20
419.1492647606641
 30
0.0
 10
339.2764484828892
 20
419.1492647606641
 30
0.0
 10
339.8607366771876
 20
419.1492647606641
 30
0.0
 10
340.1738958567968
 20
419.513411353455
 30
0.0
 10
340.2927516510379
 20
420.0046819696516
 30
0.0
 10
340.2927516510379
 20
420.0046819696516
 30
0.0
 10
341.486477236677
 20
420.0046819696516
 30
0.0
 10
341.486477236677
 20
420.0046819696516
 30
0.0
 10
341.2749483738827
 20
418.7427434934046
 30
0.0
 10
340.4026501970174
 20
418.0995441663085
 30
0.0
 10
339.2764484828892
 20
418.0995441663085
 30
0.0
 10
338.5822617426114
 20
418.0995441663085
 30
0.0
 10
338.0741101585371
 20
418.3279539969805
 30
0.0
 10
337.659320662113
 20
418.73447526424
 30
0.0
 10
337.0581514999369
 20
419.3356444264161
 30
0.0
 10
337.0495387612237
 20
420.0129501988162
 30
0.0
 10
337.0495387612237
 20
421.1648178743095
 30
0.0
 10
337.0495387612237
 20
422.31616878548
 30
0.0
 10
337.0581514999369
 20
422.9938190674287
 30
0.0
 10
337.659320662113
 20
423.5949882296047
 30
0.0
 10
338.0741101585371
 20
424.0011649873157
 30
0.0
 10
338.5822617426114
 20
424.2299193275363
 30
0.0
 10
339.2764484828892
 20
424.2299193275363
 30
0.0
 10
340.4026501970174
 20
424.2299193275363
 30
0.0
 10
341.2749483738827
 20
423.5863754908916
 30
0.0
 10
341.486477236677
 20
422.3247815241932
 30
0.0
  0
HATCH
  5
2F1
330
2B1
100
AcDbEntity
  8
Layer 1
 62
     7
100
AcDbHatch
 10
0.0
 20
0.0
 30
0.0
210
0.0
220
0.0
230
1.0
  2
SOLID
 70
     1
 71
     0
 91
        1
 92
        1
 93
        1
 72
     4
 94
        3
 73
     0
 74
     1
 95
       47
 96
       43
 40
0.0
 40
0.0
 40
0.0
 40
0.0
 40
1.0
 40
1.0
 40
1.0
 40
2.0
 40
2.0
 40
2.0
 40
3.0
 40
3.0
 40
3.0
 40
4.0
 40
4.0
 40
4.0
 40
5.0
 40
5.0
 40
5.0
 40
6.0
 40
6.0
 40
6.0
 40
7.0
 40
7.0
 40
7.0
 40
8.0
 40
8.0
 40
8.0
 40
9.0
 40
9.0
 40
9.0
 40
10.0
 40
10.0
 40
10.0
 40
11.0
 40
11.0
 40
11.0
 40
12.0
 40
12.0
 40
12.0
 40
13.0
 40
13.0
 40
13.0
 40
14.0
 40
14.0
 40
14.0
 40
14.0
 10
341.486477236677
 20
422.3247815241932
 10
341.486477236677
 20
422.3247815241932
 10
340.2927516510379
 20
422.3247815241932
 10
340.2927516510379
 20
422.3247815241932
 10
340.1738958567968
 20
422.8160521403897
 10
339.8607366771876
 20
423.1798542236322
 10
339.2764484828892
 20
423.1798542236322
 10
338.9546765645669
 20
423.1798542236322
 10
338.6921602885909
 20
423.0613429389396
 10
338.5230061002651
 20
422.8666950440229
 10
338.3028644987576
 20
422.61279150676
 10
338.2263833789851
 20
422.31616878548
 10
338.2263833789851
 20
421.1648178743095
 10
338.2263833789851
 20
420.0129501988162
 10
338.3028644987576
 20
419.7166719870847
 10
338.5230061002651
 20
419.4627684498219
 10
338.6921602885909
 20
419.2677760453567
 10
338.9546765645669
 20
419.1492647606641
 10
339.2764484828892
 20
419.1492647606641
 10
339.8607366771876
 20
419.1492647606641
 10
340.1738958567968
 20
419.513411353455
 10
340.2927516510379
 20
420.0046819696516
 10
340.2927516510379
 20
420.0046819696516
 10
341.486477236677
 20
420.0046819696516
 10
341.486477236677
 20
420.0046819696516
 10
341.2749483738827
 20
418.7427434934046
 10
340.4026501970174
 20
418.0995441663085
 10
339.2764484828892
 20
418.0995441663085
 10
338.5822617426114
 20
418.0995441663085
 10
338.0741101585371
 20
418.3279539969805
 10
337.659320662113
 20
418.73447526424
 10
337.0581514999369
 20
419.3356444264161
 10
337.0495387612237
 20
420.0129501988162
 10
337.0495387612237
 20
421.1648178743095
 10
337.0495387612237
 20
422.31616878548
 10
337.0581514999369
 20
422.9938190674287
 10
337.659320662113
 20
423.5949882296047
 10
338.0741101585371
 20
424.0011649873157
 10
338.5822617426114
 20
424.2299193275363
 10
339.2764484828892
 20
424.2299193275363
 10
340.4026501970174
 20
424.2299193275363
 10
341.2749483738827
 20
423.5863754908916
 10
341.486477236677
 20
422.3247815241932
 97
        0
 75
     2
 76
     1
 98
        0
  0
SPLINE
  5
2F2
330
2B1
100
AcDbEntity
  8
Layer 1
370
     0
100
AcDbSpline
210
0.0
220
0.0
230
1.0
 70
    11
 71
     3
 72
    17
 73
    13
 74
     0
 42
0.0000000001
 43
0.0000000001
 12
1.0
 22
0.0
 32
0.0
 13
1.0
 23
0.0
 33
0.0
 40
0.0
 40
0.0
 40
0.0
 40
0.0
 40
1.0
 40
1.0
 40
1.0
 40
2.0
 40
2.0
 40
2.0
 40
3.0
 40
3.0
 40
3.0
 40
4.0
 40
4.0
 40
4.0
 40
4.0
 10
342.0904024752413
 20
422.7271686768703
 30
0.0
 10
342.0904024752413
 20
423.7141885333944
 30
0.0
 10
342.8903536469163
 20
424.5141397050694
 30
0.0
 10
343.8773735034404
 20
424.5141397050694
 30
0.0
 10
344.864737869513
 20
424.5141397050694
 30
0.0
 10
345.6643445316395
 20
423.7141885333944
 30
0.0
 10
345.6643445316395
 20
422.7271686768703
 30
0.0
 10
345.6643445316395
 20
421.7398043107977
 30
0.0
 10
344.864737869513
 20
420.9401976486712
 30
0.0
 10
343.8773735034404
 20
420.9401976486712
 30
0.0
 10
342.8903536469163
 20
420.9401976486712
 30
0.0
 10
342.0904024752413
 20
421.7398043107977
 30
0.0
 10
342.0904024752413
 20
422.7271686768703
 30
0.0
  0
SPLINE
  5
2F3
330
2B1
100
AcDbEntity
  8
Layer 1
370
     0
100
AcDbSpline
210
0.0
220
0.0
230
1.0
 70
    11
 71
     3
 72
    17
 73
    13
 74
     0
 42
0.0000000001
 43
0.0000000001
 12
1.0
 22
0.0
 32
0.0
 13
1.0
 23
0.0
 33
0.0
 40
0.0
 40
0.0
 40
0.0
 40
0.0
 40
1.0
 40
1.0
 40
1.0
 40
2.0
 40
2.0
 40
2.0
 40
3.0
 40
3.0
 40
3.0
 40
4.0
 40
4.0
 40
4.0
 40
4.0
 10
345.2399087678567
 20
422.7271686768703
 30
0.0
 10
345.2399087678567
 20
423.5219522053175
 30
0.0
 10
344.6473523443937
 20
424.1141641192319
 30
0.0
 10
343.8773735034404
 20
424.1141641192319
 30
0.0
 10
343.1073946624871
 20
424.1141641192319
 30
0.0
 10
342.5151827485726
 20
423.5219522053175
 30
0.0
 10
342.5151827485726
 20
422.7271686768703
 30
0.0
 10
342.5151827485726
 20
421.9323851484232
 30
0.0
 10
343.1073946624871
 20
421.3401732345087
 30
0.0
 10
343.8773735034404
 20
421.3401732345087
 30
0.0
 10
344.6473523443937
 20
421.3401732345087
 30
0.0
 10
345.2399087678567
 20
421.9323851484232
 30
0.0
 10
345.2399087678567
 20
422.7271686768703
 30
0.0
  0
SPLINE
  5
2F4
330
2B1
100
AcDbEntity
  8
Layer 1
370
     0
100
AcDbSpline
210
0.0
220
0.0
230
1.0
 70
    11
 71
     3
 72
    35
 73
    31
 74
     0
 42
0.0000000001
 43
0.0000000001
 12
1.0
 22
0.0
 32
0.0
 13
1.0
 23
0.0
 33
0.0
 40
0.0
 40
0.0
 40
0.0
 40
0.0
 40
1.0
 40
1.0
 40
1.0
 40
2.0
 40
2.0
 40
2.0
 40
3.0
 40
3.0
 40
3.0
 40
4.0
 40
4.0
 40
4.0
 40
5.0
 40
5.0
 40
5.0
 40
6.0
 40
6.0
 40
6.0
 40
7.0
 40
7.0
 40
7.0
 40
8.0
 40
8.0
 40
8.0
 40
9.0
 40
9.0
 40
9.0
 40
10.0
 40
10.0
 40
10.0
 40
10.0
 10
343.2259059471796
 20
423.6797375785419
 30
0.0
 10
343.2259059471796
 20
423.6797375785419
 30
0.0
 10
344.0007079218124
 20
423.6797375785419
 30
0.0
 10
344.0007079218124
 20
423.6797375785419
 30
0.0
 10
344.3858695970633
 20
423.6797375785419
 30
0.0
 10
344.6325384338072
 20
423.398273277397
 30
0.0
 10
344.6325384338072
 20
423.0823580213996
 30
0.0
 10
344.6325384338072
 20
422.8208752740691
 30
0.0
 10
344.4647622836755
 20
422.6530991239375
 30
0.0
 10
344.2821722229572
 20
422.5790295710046
 30
0.0
 10
344.2821722229572
 20
422.5790295710046
 30
0.0
 10
344.6821478087948
 20
421.7794229088781
 30
0.0
 10
344.6821478087948
 20
421.7794229088781
 30
0.0
 10
344.6821478087948
 20
421.7794229088781
 30
0.0
 10
344.1981118931171
 20
421.7794229088781
 30
0.0
 10
344.1981118931171
 20
421.7794229088781
 30
0.0
 10
344.1981118931171
 20
421.7794229088781
 30
0.0
 10
343.8529133254951
 20
422.5149507949789
 30
0.0
 10
343.8529133254951
 20
422.5149507949789
 30
0.0
 10
343.8529133254951
 20
422.5149507949789
 30
0.0
 10
343.6503417109624
 20
422.5149507949789
 30
0.0
 10
343.6503417109624
 20
422.5149507949789
 30
0.0
 10
343.6503417109624
 20
422.5149507949789
 30
0.0
 10
343.6503417109624
 20
421.7794229088781
 30
0.0
 10
343.6503417109624
 20
421.7794229088781
 30
0.0
 10
343.6503417109624
 20
421.7794229088781
 30
0.0
 10
343.2259059471796
 20
421.7794229088781
 30
0.0
 10
343.2259059471796
 20
421.7794229088781
 30
0.0
 10
343.2259059471796
 20
421.7794229088781
 30
0.0
 10
343.2259059471796
 20
423.6797375785419
 30
0.0
 10
343.2259059471796
 20
423.6797375785419
 30
0.0
  0
SPLINE
  5
2F5
330
2B1
100
AcDbEntity
  8
Layer 1
370
     0
100
AcDbSpline
210
0.0
220
0.0
230
1.0
 70
    11
 71
     3
 72
    20
 73
    16
 74
     0
 42
0.0000000001
 43
0.0000000001
 12
1.0
 22
0.0
 32
0.0
 13
1.0
 23
0.0
 33
0.0
 40
0.0
 40
0.0
 40
0.0
 40
0.0
 40
1.0
 40
1.0
 40
1.0
 40
2.0
 40
2.0
 40
2.0
 40
3.0
 40
3.0
 40
3.0
 40
4.0
 40
4.0
 40
4.0
 40
5.0
 40
5.0
 40
5.0
 40
5.0
 10
343.9466199226939
 20
422.8356891846557
 30
0.0
 10
344.1044052959184
 20
422.8356891846557
 30
0.0
 10
344.2081026700244
 20
422.9493773356689
 30
0.0
 10
344.2081026700244
 20
423.0823580213996
 30
0.0
 10
344.2081026700244
 20
423.2156832166787
 30
0.0
 10
344.1044052959184
 20
423.329371367692
 30
0.0
 10
343.9466199226939
 20
423.329371367692
 30
0.0
 10
343.9466199226939
 20
423.329371367692
 30
0.0
 10
343.6503417109624
 20
423.329371367692
 30
0.0
 10
343.6503417109624
 20
423.329371367692
 30
0.0
 10
343.6503417109624
 20
423.329371367692
 30
0.0
 10
343.6503417109624
 20
422.8356891846557
 30
0.0
 10
343.6503417109624
 20
422.8356891846557
 30
0.0
 10
343.6503417109624
 20
422.8356891846557
 30
0.0
 10
343.9466199226939
 20
422.8356891846557
 30
0.0
 10
343.9466199226939
 20
422.8356891846557
 30
0.0
  0
HATCH
  5
2F6
330
2B1
100
AcDbEntity
  8
Layer 1
 62
     7
100
AcDbHatch
 10
0.0
 20
0.0
 30
0.0
210
0.0
220
0.0
230
1.0
  2
SOLID
 70
     1
 71
     0
 91
        4
 92
        1
 93
        1
 72
     4
 94
        3
 73
     0
 74
     1
 95
       17
 96
       13
 40
0.0
 40
0.0
 40
0.0
 40
0.0
 40
1.0
 40
1.0
 40
1.0
 40
2.0
 40
2.0
 40
2.0
 40
3.0
 40
3.0
 40
3.0
 40
4.0
 40
4.0
 40
4.0
 40
4.0
 10
342.0904024752413
 20
422.7271686768703
 10
342.0904024752413
 20
423.7141885333944
 10
342.8903536469163
 20
424.5141397050694
 10
343.8773735034404
 20
424.5141397050694
 10
344.864737869513
 20
424.5141397050694
 10
345.6643445316395
 20
423.7141885333944
 10
345.6643445316395
 20
422.7271686768703
 10
345.6643445316395
 20
421.7398043107977
 10
344.864737869513
 20
420.9401976486712
 10
343.8773735034404
 20
420.9401976486712
 10
342.8903536469163
 20
420.9401976486712
 10
342.0904024752413
 20
421.7398043107977
 10
342.0904024752413
 20
422.7271686768703
 97
        0
 92
        1
 93
        1
 72
     4
 94
        3
 73
     0
 74
     1
 95
       17
 96
       13
 40
0.0
 40
0.0
 40
0.0
 40
0.0
 40
1.0
 40
1.0
 40
1.0
 40
2.0
 40
2.0
 40
2.0
 40
3.0
 40
3.0
 40
3.0
 40
4.0
 40
4.0
 40
4.0
 40
4.0
 10
345.2399087678567
 20
422.7271686768703
 10
345.2399087678567
 20
423.5219522053175
 10
344.6473523443937
 20
424.1141641192319
 10
343.8773735034404
 20
424.1141641192319
 10
343.1073946624871
 20
424.1141641192319
 10
342.5151827485726
 20
423.5219522053175
 10
342.5151827485726
 20
422.7271686768703
 10
342.5151827485726
 20
421.9323851484232
 10
343.1073946624871
 20
421.3401732345087
 10
343.8773735034404
 20
421.3401732345087
 10
344.6473523443937
 20
421.3401732345087
 10
345.2399087678567
 20
421.9323851484232
 10
345.2399087678567
 20
422.7271686768703
 97
        0
 92
        1
 93
        1
 72
     4
 94
        3
 73
     0
 74
     1
 95
       35
 96
       31
 40
0.0
 40
0.0
 40
0.0
 40
0.0
 40
1.0
 40
1.0
 40
1.0
 40
2.0
 40
2.0
 40
2.0
 40
3.0
 40
3.0
 40
3.0
 40
4.0
 40
4.0
 40
4.0
 40
5.0
 40
5.0
 40
5.0
 40
6.0
 40
6.0
 40
6.0
 40
7.0
 40
7.0
 40
7.0
 40
8.0
 40
8.0
 40
8.0
 40
9.0
 40
9.0
 40
9.0
 40
10.0
 40
10.0
 40
10.0
 40
10.0
 10
343.2259059471796
 20
423.6797375785419
 10
343.2259059471796
 20
423.6797375785419
 10
344.0007079218124
 20
423.6797375785419
 10
344.0007079218124
 20
423.6797375785419
 10
344.3858695970633
 20
423.6797375785419
 10
344.6325384338072
 20
423.398273277397
 10
344.6325384338072
 20
423.0823580213996
 10
344.6325384338072
 20
422.8208752740691
 10
344.4647622836755
 20
422.6530991239375
 10
344.2821722229572
 20
422.5790295710046
 10
344.2821722229572
 20
422.5790295710046
 10
344.6821478087948
 20
421.7794229088781
 10
344.6821478087948
 20
421.7794229088781
 10
344.6821478087948
 20
421.7794229088781
 10
344.1981118931171
 20
421.7794229088781
 10
344.1981118931171
 20
421.7794229088781
 10
344.1981118931171
 20
421.7794229088781
 10
343.8529133254951
 20
422.5149507949789
 10
343.8529133254951
 20
422.5149507949789
 10
343.8529133254951
 20
422.5149507949789
 10
343.6503417109624
 20
422.5149507949789
 10
343.6503417109624
 20
422.5149507949789
 10
343.6503417109624
 20
422.5149507949789
 10
343.6503417109624
 20
421.7794229088781
 10
343.6503417109624
 20
421.7794229088781
 10
343.6503417109624
 20
421.7794229088781
 10
343.2259059471796
 20
421.7794229088781
 10
343.2259059471796
 20
421.7794229088781
 10
343.2259059471796
 20
421.7794229088781
 10
343.2259059471796
 20
423.6797375785419
 10
343.2259059471796
 20
423.6797375785419
 97
        0
 92
        1
 93
        1
 72
     4
 94
        3
 73
     0
 74
     1
 95
       20
 96
       16
 40
0.0
 40
0.0
 40
0.0
 40
0.0
 40
1.0
 40
1.0
 40
1.0
 40
2.0
 40
2.0
 40
2.0
 40
3.0
 40
3.0
 40
3.0
 40
4.0
 40
4.0
 40
4.0
 40
5.0
 40
5.0
 40
5.0
 40
5.0
 10
343.9466199226939
 20
422.8356891846557
 10
344.1044052959184
 20
422.8356891846557
 10
344.2081026700244
 20
422.9493773356689
 10
344.2081026700244
 20
423.0823580213996
 10
344.2081026700244
 20
423.2156832166787
 10
344.1044052959184
 20
423.329371367692
 10
343.9466199226939
 20
423.329371367692
 10
343.9466199226939
 20
423.329371367692
 10
343.6503417109624
 20
423.329371367692
 10
343.6503417109624
 20
423.329371367692
 10
343.6503417109624
 20
423.329371367692
 10
343.6503417109624
 20
422.8356891846557
 10
343.6503417109624
 20
422.8356891846557
 10
343.6503417109624
 20
422.8356891846557
 10
343.9466199226939
 20
422.8356891846557
 10
343.9466199226939
 20
422.8356891846557
 97
        0
 75
     2
 76
     1
 98
        0
  0
SPLINE
  5
2F7
330
2B1
100
AcDbEntity
  8
Layer 1
370
     0
100
AcDbSpline
210
0.0
220
0.0
230
1.0
 70
    11
 71
     3
 72
    26
 73
    22
 74
     0
 42
0.0000000001
 43
0.0000000001
 12
1.0
 22
0.0
 32
0.0
 13
1.0
 23
0.0
 33
0.0
 40
0.0
 40
0.0
 40
0.0
 40
0.0
 40
1.0
 40
1.0
 40
1.0
 40
2.0
 40
2.0
 40
2.0
 40
3.0
 40
3.0
 40
3.0
 40
4.0
 40
4.0
 40
4.0
 40
5.0
 40
5.0
 40
5.0
 40
6.0
 40
6.0
 40
6.0
 40
7.0
 40
7.0
 40
7.0
 40
7.0
 10
351.2047470910182
 20
424.1792764239031
 30
0.0
 10
352.2548121949224
 20
424.1792764239031
 30
0.0
 10
352.9831053805042
 20
423.578107261727
 30
0.0
 10
352.9831053805042
 20
422.5704168322915
 30
0.0
 10
352.9831053805042
 20
421.9351412248114
 30
0.0
 10
352.6020778198356
 20
421.4356023794501
 30
0.0
 10
352.0939262357613
 20
421.2495672232466
 30
0.0
 10
352.6696016913465
 20
421.0376938509038
 30
0.0
 10
353.076122958606
 20
420.5381550055426
 30
0.0
 10
353.076122958606
 20
419.8183023038996
 30
0.0
 10
353.076122958606
 20
418.7258625255269
 30
0.0
 10
352.3481742825727
 20
418.1501870699416
 30
0.0
 10
351.2812282107908
 20
418.1501870699416
 30
0.0
 10
351.2812282107908
 20
418.1501870699416
 30
0.0
 10
348.9358072044327
 20
418.1501870699416
 30
0.0
 10
348.9358072044327
 20
418.1501870699416
 30
0.0
 10
348.9358072044327
 20
418.1501870699416
 30
0.0
 10
348.9358072044327
 20
424.1792764239031
 30
0.0
 10
348.9358072044327
 20
424.1792764239031
 30
0.0
 10
348.9358072044327
 20
424.1792764239031
 30
0.0
 10
351.2047470910182
 20
424.1792764239031
 30
0.0
 10
351.2047470910182
 20
424.1792764239031
 30
0.0
  0
SPLINE
  5
2F8
330
2B1
100
AcDbEntity
  8
Layer 1
370
     0
100
AcDbSpline
210
0.0
220
0.0
230
1.0
 70
    11
 71
     3
 72
    20
 73
    16
 74
     0
 42
0.0000000001
 43
0.0000000001
 12
1.0
 22
0.0
 32
0.0
 13
1.0
 23
0.0
 33
0.0
 40
0.0
 40
0.0
 40
0.0
 40
0.0
 40
1.0
 40
1.0
 40
1.0
 40
2.0
 40
2.0
 40
2.0
 40
3.0
 40
3.0
 40
3.0
 40
4.0
 40
4.0
 40
4.0
 40
5.0
 40
5.0
 40
5.0
 40
5.0
 10
349.5790065315289
 20
423.6032564587694
 30
0.0
 10
349.5790065315289
 20
423.6032564587694
 30
0.0
 10
349.5790065315289
 20
421.5120834992227
 30
0.0
 10
349.5790065315289
 20
421.5120834992227
 30
0.0
 10
349.5790065315289
 20
421.5120834992227
 30
0.0
 10
351.1541041873851
 20
421.5120834992227
 30
0.0
 10
351.1541041873851
 20
421.5120834992227
 30
0.0
 10
351.8231417306206
 20
421.5120834992227
 30
0.0
 10
352.3395615438596
 20
421.8421236467096
 30
0.0
 10
352.3395615438596
 20
422.5618040935783
 30
0.0
 10
352.3395615438596
 20
423.281484540447
 30
0.0
 10
351.8231417306206
 20
423.6032564587694
 30
0.0
 10
351.1541041873851
 20
423.6032564587694
 30
0.0
 10
351.1541041873851
 20
423.6032564587694
 30
0.0
 10
349.5790065315289
 20
423.6032564587694
 30
0.0
 10
349.5790065315289
 20
423.6032564587694
 30
0.0
  0
SPLINE
  5
2F9
330
2B1
100
AcDbEntity
  8
Layer 1
370
     0
100
AcDbSpline
210
0.0
220
0.0
230
1.0
 70
    11
 71
     3
 72
    20
 73
    16
 74
     0
 42
0.0000000001
 43
0.0000000001
 12
1.0
 22
0.0
 32
0.0
 13
1.0
 23
0.0
 33
0.0
 40
0.0
 40
0.0
 40
0.0
 40
0.0
 40
1.0
 40
1.0
 40
1.0
 40
2.0
 40
2.0
 40
2.0
 40
3.0
 40
3.0
 40
3.0
 40
4.0
 40
4.0
 40
4.0
 40
5.0
 40
5.0
 40
5.0
 40
5.0
 10
349.5790065315289
 20
420.9360635340889
 30
0.0
 10
349.5790065315289
 20
420.9360635340889
 30
0.0
 10
349.5790065315289
 20
418.7258625255269
 30
0.0
 10
349.5790065315289
 20
418.7258625255269
 30
0.0
 10
349.5790065315289
 20
418.7258625255269
 30
0.0
 10
351.2219725684445
 20
418.7258625255269
 30
0.0
 10
351.2219725684445
 20
418.7258625255269
 30
0.0
 10
351.967146721904
 20
418.7258625255269
 30
0.0
 10
352.4325791219613
 20
419.1578774993772
 30
0.0
 10
352.4325791219613
 20
419.8351832717773
 30
0.0
 10
352.4325791219613
 20
420.5126612989517
 30
0.0
 10
351.967146721904
 20
420.9360635340889
 30
0.0
 10
351.2219725684445
 20
420.9360635340889
 30
0.0
 10
351.2219725684445
 20
420.9360635340889
 30
0.0
 10
349.5790065315289
 20
420.9360635340889
 30
0.0
 10
349.5790065315289
 20
420.9360635340889
 30
0.0
  0
HATCH
  5
2FA
330
2B1
100
AcDbEntity
  8
Layer 1
 62
     7
100
AcDbHatch
 10
0.0
 20
0.0
 30
0.0
210
0.0
220
0.0
230
1.0
  2
SOLID
 70
     1
 71
     0
 91
        3
 92
        1
 93
        1
 72
     4
 94
        3
 73
     0
 74
     1
 95
       26
 96
       22
 40
0.0
 40
0.0
 40
0.0
 40
0.0
 40
1.0
 40
1.0
 40
1.0
 40
2.0
 40
2.0
 40
2.0
 40
3.0
 40
3.0
 40
3.0
 40
4.0
 40
4.0
 40
4.0
 40
5.0
 40
5.0
 40
5.0
 40
6.0
 40
6.0
 40
6.0
 40
7.0
 40
7.0
 40
7.0
 40
7.0
 10
351.2047470910182
 20
424.1792764239031
 10
352.2548121949224
 20
424.1792764239031
 10
352.9831053805042
 20
423.578107261727
 10
352.9831053805042
 20
422.5704168322915
 10
352.9831053805042
 20
421.9351412248114
 10
352.6020778198356
 20
421.4356023794501
 10
352.0939262357613
 20
421.2495672232466
 10
352.6696016913465
 20
421.0376938509038
 10
353.076122958606
 20
420.5381550055426
 10
353.076122958606
 20
419.8183023038996
 10
353.076122958606
 20
418.7258625255269
 10
352.3481742825727
 20
418.1501870699416
 10
351.2812282107908
 20
418.1501870699416
 10
351.2812282107908
 20
418.1501870699416
 10
348.9358072044327
 20
418.1501870699416
 10
348.9358072044327
 20
418.1501870699416
 10
348.9358072044327
 20
418.1501870699416
 10
348.9358072044327
 20
424.1792764239031
 10
348.9358072044327
 20
424.1792764239031
 10
348.9358072044327
 20
424.1792764239031
 10
351.2047470910182
 20
424.1792764239031
 10
351.2047470910182
 20
424.1792764239031
 97
        0
 92
        1
 93
        1
 72
     4
 94
        3
 73
     0
 74
     1
 95
       20
 96
       16
 40
0.0
 40
0.0
 40
0.0
 40
0.0
 40
1.0
 40
1.0
 40
1.0
 40
2.0
 40
2.0
 40
2.0
 40
3.0
 40
3.0
 40
3.0
 40
4.0
 40
4.0
 40
4.0
 40
5.0
 40
5.0
 40
5.0
 40
5.0
 10
349.5790065315289
 20
423.6032564587694
 10
349.5790065315289
 20
423.6032564587694
 10
349.5790065315289
 20
421.5120834992227
 10
349.5790065315289
 20
421.5120834992227
 10
349.5790065315289
 20
421.5120834992227
 10
351.1541041873851
 20
421.5120834992227
 10
351.1541041873851
 20
421.5120834992227
 10
351.8231417306206
 20
421.5120834992227
 10
352.3395615438596
 20
421.8421236467096
 10
352.3395615438596
 20
422.5618040935783
 10
352.3395615438596
 20
423.281484540447
 10
351.8231417306206
 20
423.6032564587694
 10
351.1541041873851
 20
423.6032564587694
 10
351.1541041873851
 20
423.6032564587694
 10
349.5790065315289
 20
423.6032564587694
 10
349.5790065315289
 20
423.6032564587694
 97
        0
 92
        1
 93
        1
 72
     4
 94
        3
 73
     0
 74
     1
 95
       20
 96
       16
 40
0.0
 40
0.0
 40
0.0
 40
0.0
 40
1.0
 40
1.0
 40
1.0
 40
2.0
 40
2.0
 40
2.0
 40
3.0
 40
3.0
 40
3.0
 40
4.0
 40
4.0
 40
4.0
 40
5.0
 40
5.0
 40
5.0
 40
5.0
 10
349.5790065315289
 20
420.9360635340889
 10
349.5790065315289
 20
420.9360635340889
 10
349.5790065315289
 20
418.7258625255269
 10
349.5790065315289
 20
418.7258625255269
 10
349.5790065315289
 20
418.7258625255269
 10
351.2219725684445
 20
418.7258625255269
 10
351.2219725684445
 20
418.7258625255269
 10
351.967146721904
 20
418.7258625255269
 10
352.4325791219613
 20
419.1578774993772
 10
352.4325791219613
 20
419.8351832717773
 10
352.4325791219613
 20
420.5126612989517
 10
351.967146721904
 20
420.9360635340889
 10
351.2219725684445
 20
420.9360635340889
 10
351.2219725684445
 20
420.9360635340889
 10
349.5790065315289
 20
420.9360635340889
 10
349.5790065315289
 20
420.9360635340889
 97
        0
 75
     2
 76
     1
 98
        0
  0
SPLINE
  5
2FB
330
2B1
100
AcDbEntity
  8
Layer 1
370
     0
100
AcDbSpline
210
0.0
220
0.0
230
1.0
 70
    11
 71
     3
 72
    29
 73
    25
 74
     0
 42
0.0000000001
 43
0.0000000001
 12
1.0
 22
0.0
 32
0.0
 13
1.0
 23
0.0
 33
0.0
 40
0.0
 40
0.0
 40
0.0
 40
0.0
 40
1.0
 40
1.0
 40
1.0
 40
2.0
 40
2.0
 40
2.0
 40
3.0
 40
3.0
 40
3.0
 40
4.0
 40
4.0
 40
4.0
 40
5.0
 40
5.0
 40
5.0
 40
6.0
 40
6.0
 40
6.0
 40
7.0
 40
7.0
 40
7.0
 40
8.0
 40
8.0
 40
8.0
 40
8.0
 10
354.1509927500039
 20
419.8096895651865
 30
0.0
 10
354.1509927500039
 20
420.5126612989517
 30
0.0
 10
354.5492457880988
 20
420.9870509472706
 30
0.0
 10
355.0570528626246
 20
421.274716420289
 30
0.0
 10
354.5830077238543
 20
421.5458454349782
 30
0.0
 10
354.2698485442451
 20
421.9861286379931
 30
0.0
 10
354.2698485442451
 20
422.61279150676
 30
0.0
 10
354.2698485442451
 20
423.5526135551362
 30
0.0
 10
354.972648023236
 20
424.2299193275363
 30
0.0
 10
355.9293510394899
 20
424.2299193275363
 30
0.0
 10
356.8860540557438
 20
424.2299193275363
 30
0.0
 10
357.5888535347348
 20
423.5526135551362
 30
0.0
 10
357.5888535347348
 20
422.61279150676
 30
0.0
 10
357.5888535347348
 20
421.9861286379931
 30
0.0
 10
357.2839625842901
 20
421.5458454349782
 30
0.0
 10
356.8099174455198
 20
421.274716420289
 30
0.0
 10
357.3180690295941
 20
420.9870509472706
 30
0.0
 10
357.7073648194274
 20
420.5126612989517
 30
0.0
 10
357.7073648194274
 20
419.8096895651865
 30
0.0
 10
357.7073648194274
 20
418.7937309065863
 30
0.0
 10
356.9284287302124
 20
418.0995441663085
 30
0.0
 10
355.9293510394899
 20
418.0995441663085
 30
0.0
 10
354.9302733487675
 20
418.0995441663085
 30
0.0
 10
354.1509927500039
 20
418.7937309065863
 30
0.0
 10
354.1509927500039
 20
419.8096895651865
 30
0.0
  0
SPLINE
  5
2FC
330
2B1
100
AcDbEntity
  8
Layer 1
370
     0
100
AcDbSpline
210
0.0
220
0.0
230
1.0
 70
    11
 71
     3
 72
    17
 73
    13
 74
     0
 42
0.0000000001
 43
0.0000000001
 12
1.0
 22
0.0
 32
0.0
 13
1.0
 23
0.0
 33
0.0
 40
0.0
 40
0.0
 40
0.0
 40
0.0
 40
1.0
 40
1.0
 40
1.0
 40
2.0
 40
2.0
 40
2.0
 40
3.0
 40
3.0
 40
3.0
 40
4.0
 40
4.0
 40
4.0
 40
4.0
 10
357.0979274280866
 20
419.8183023038996
 30
0.0
 10
357.0979274280866
 20
420.4875121019094
 30
0.0
 10
356.5897758440123
 20
420.9953191764352
 30
0.0
 10
355.9293510394899
 20
420.9953191764352
 30
0.0
 10
355.2689262349675
 20
420.9953191764352
 30
0.0
 10
354.7607746508932
 20
420.4875121019094
 30
0.0
 10
354.7607746508932
 20
419.8183023038996
 30
0.0
 10
354.7607746508932
 20
419.1492647606641
 30
0.0
 10
355.2689262349675
 20
418.6414576861383
 30
0.0
 10
355.9293510394899
 20
418.6414576861383
 30
0.0
 10
356.5897758440123
 20
418.6414576861383
 30
0.0
 10
357.0979274280866
 20
419.1492647606641
 30
0.0
 10
357.0979274280866
 20
419.8183023038996
 30
0.0
  0
SPLINE
  5
2FD
330
2B1
100
AcDbEntity
  8
Layer 1
370
     0
100
AcDbSpline
210
0.0
220
0.0
230
1.0
 70
    11
 71
     3
 72
    17
 73
    13
 74
     0
 42
0.0000000001
 43
0.0000000001
 12
1.0
 22
0.0
 32
0.0
 13
1.0
 23
0.0
 33
0.0
 40
0.0
 40
0.0
 40
0.0
 40
0.0
 40
1.0
 40
1.0
 40
1.0
 40
2.0
 40
2.0
 40
2.0
 40
3.0
 40
3.0
 40
3.0
 40
4.0
 40
4.0
 40
4.0
 40
4.0
 10
356.9794161433941
 20
422.6041787680469
 30
0.0
 10
356.9794161433941
 20
423.2308416368139
 30
0.0
 10
356.5474011695437
 20
423.6880058077065
 30
0.0
 10
355.9293510394899
 20
423.6880058077065
 30
0.0
 10
355.3113009094361
 20
423.6880058077065
 30
0.0
 10
354.8792859355858
 20
423.2308416368139
 30
0.0
 10
354.8792859355858
 20
422.6041787680469
 30
0.0
 10
354.8792859355858
 20
421.9692476701154
 30
0.0
 10
355.3113009094361
 20
421.5289644671004
 30
0.0
 10
355.9293510394899
 20
421.5289644671004
 30
0.0
 10
356.5474011695437
 20
421.5289644671004
 30
0.0
 10
356.9794161433941
 20
421.9692476701154
 30
0.0
 10
356.9794161433941
 20
422.6041787680469
 30
0.0
  0
HATCH
  5
2FE
330
2B1
100
AcDbEntity
  8
Layer 1
 62
     7
100
AcDbHatch
 10
0.0
 20
0.0
 30
0.0
210
0.0
220
0.0
230
1.0
  2
SOLID
 70
     1
 71
     0
 91
        3
 92
        1
 93
        1
 72
     4
 94
        3
 73
     0
 74
     1
 95
       29
 96
       25
 40
0.0
 40
0.0
 40
0.0
 40
0.0
 40
1.0
 40
1.0
 40
1.0
 40
2.0
 40
2.0
 40
2.0
 40
3.0
 40
3.0
 40
3.0
 40
4.0
 40
4.0
 40
4.0
 40
5.0
 40
5.0
 40
5.0
 40
6.0
 40
6.0
 40
6.0
 40
7.0
 40
7.0
 40
7.0
 40
8.0
 40
8.0
 40
8.0
 40
8.0
 10
354.1509927500039
 20
419.8096895651865
 10
354.1509927500039
 20
420.5126612989517
 10
354.5492457880988
 20
420.9870509472706
 10
355.0570528626246
 20
421.274716420289
 10
354.5830077238543
 20
421.5458454349782
 10
354.2698485442451
 20
421.9861286379931
 10
354.2698485442451
 20
422.61279150676
 10
354.2698485442451
 20
423.5526135551362
 10
354.972648023236
 20
424.2299193275363
 10
355.9293510394899
 20
424.2299193275363
 10
356.8860540557438
 20
424.2299193275363
 10
357.5888535347348
 20
423.5526135551362
 10
357.5888535347348
 20
422.61279150676
 10
357.5888535347348
 20
421.9861286379931
 10
357.2839625842901
 20
421.5458454349782
 10
356.8099174455198
 20
421.274716420289
 10
357.3180690295941
 20
420.9870509472706
 10
357.7073648194274
 20
420.5126612989517
 10
357.7073648194274
 20
419.8096895651865
 10
357.7073648194274
 20
418.7937309065863
 10
356.9284287302124
 20
418.0995441663085
 10
355.9293510394899
 20
418.0995441663085
 10
354.9302733487675
 20
418.0995441663085
 10
354.1509927500039
 20
418.7937309065863
 10
354.1509927500039
 20
419.8096895651865
 97
        0
 92
        1
 93
        1
 72
     4
 94
        3
 73
     0
 74
     1
 95
       17
 96
       13
 40
0.0
 40
0.0
 40
0.0
 40
0.0
 40
1.0
 40
1.0
 40
1.0
 40
2.0
 40
2.0
 40
2.0
 40
3.0
 40
3.0
 40
3.0
 40
4.0
 40
4.0
 40
4.0
 40
4.0
 10
357.0979274280866
 20
419.8183023038996
 10
357.0979274280866
 20
420.4875121019094
 10
356.5897758440123
 20
420.9953191764352
 10
355.9293510394899
 20
420.9953191764352
 10
355.2689262349675
 20
420.9953191764352
 10
354.7607746508932
 20
420.4875121019094
 10
354.7607746508932
 20
419.8183023038996
 10
354.7607746508932
 20
419.1492647606641
 10
355.2689262349675
 20
418.6414576861383
 10
355.9293510394899
 20
418.6414576861383
 10
356.5897758440123
 20
418.6414576861383
 10
357.0979274280866
 20
419.1492647606641
 10
357.0979274280866
 20
419.8183023038996
 97
        0
 92
        1
 93
        1
 72
     4
 94
        3
 73
     0
 74
     1
 95
       17
 96
       13
 40
0.0
 40
0.0
 40
0.0
 40
0.0
 40
1.0
 40
1.0
 40
1.0
 40
2.0
 40
2.0
 40
2.0
 40
3.0
 40
3.0
 40
3.0
 40
4.0
 40
4.0
 40
4.0
 40
4.0
 10
356.9794161433941
 20
422.6041787680469
 10
356.9794161433941
 20
423.2308416368139
 10
356.5474011695437
 20
423.6880058077065
 10
355.9293510394899
 20
423.6880058077065
 10
355.3113009094361
 20
423.6880058077065
 10
354.8792859355858
 20
423.2308416368139
 10
354.8792859355858
 20
422.6041787680469
 10
354.8792859355858
 20
421.9692476701154
 10
355.3113009094361
 20
421.5289644671004
 10
355.9293510394899
 20
421.5289644671004
 10
356.5474011695437
 20
421.5289644671004
 10
356.9794161433941
 20
421.9692476701154
 10
356.9794161433941
 20
422.6041787680469
 97
        0
 75
     2
 76
     1
 98
        0
  0
SPLINE
  5
2FF
330
2B1
100
AcDbEntity
  8
Layer 1
370
     0
100
AcDbSpline
210
0.0
220
0.0
230
1.0
 70
    11
 71
     3
 72
    62
 73
    58
 74
     0
 42
0.0000000001
 43
0.0000000001
 12
1.0
 22
0.0
 32
0.0
 13
1.0
 23
0.0
 33
0.0
 40
0.0
 40
0.0
 40
0.0
 40
0.0
 40
1.0
 40
1.0
 40
1.0
 40
2.0
 40
2.0
 40
2.0
 40
3.0
 40
3.0
 40
3.0
 40
4.0
 40
4.0
 40
4.0
 40
5.0
 40
5.0
 40
5.0
 40
6.0
 40
6.0
 40
6.0
 40
7.0
 40
7.0
 40
7.0
 40
8.0
 40
8.0
 40
8.0
 40
9.0
 40
9.0
 40
9.0
 40
10.0
 40
10.0
 40
10.0
 40
11.0
 40
11.0
 40
11.0
 40
12.0
 40
12.0
 40
12.0
 40
13.0
 40
13.0
 40
13.0
 40
14.0
 40
14.0
 40
14.0
 40
15.0
 40
15.0
 40
15.0
 40
16.0
 40
16.0
 40
16.0
 40
17.0
 40
17.0
 40
17.0
 40
18.0
 40
18.0
 40
18.0
 40
19.0
 40
19.0
 40
19.0
 40
19.0
 10
359.1546494327808
 20
418.5312146306103
 30
0.0
 10
358.8921331568048
 20
418.8023436452995
 30
0.0
 10
358.7653536429476
 20
419.1492647606641
 30
0.0
 10
358.7312471976436
 20
419.5812797345144
 30
0.0
 10
358.7312471976436
 20
419.5812797345144
 30
0.0
 10
359.3410290985328
 20
419.5812797345144
 30
0.0
 10
359.3410290985328
 20
419.5812797345144
 30
0.0
 10
359.4171657087568
 20
418.9801105723383
 30
0.0
 10
359.7306693979146
 20
418.6414576861383
 30
0.0
 10
360.3656004958461
 20
418.6414576861383
 30
0.0
 10
360.6618787075776
 20
418.6414576861383
 30
0.0
 10
360.9330077222668
 20
418.7427434934046
 30
0.0
 10
361.1107746493057
 20
418.920854929992
 30
0.0
 10
361.4239338289149
 20
419.2340141096012
 30
0.0
 10
361.4408147967926
 20
419.7166719870847
 30
0.0
 10
361.4408147967926
 20
420.1483424513866
 30
0.0
 10
361.4408147967926
 20
420.8854206304558
 30
0.0
 10
361.2971543150577
 20
421.6051010773244
 30
0.0
 10
360.4248561381924
 20
421.6051010773244
 30
0.0
 10
359.8998235862404
 20
421.6051010773244
 30
0.0
 10
359.5442897321626
 20
421.3680785079392
 30
0.0
 10
359.42577844747
 20
421.0122001443129
 30
0.0
 10
359.42577844747
 20
421.0122001443129
 30
0.0
 10
358.875252188927
 20
421.0122001443129
 30
0.0
 10
358.875252188927
 20
421.0122001443129
 30
0.0
 10
358.875252188927
 20
421.0122001443129
 30
0.0
 10
358.875252188927
 20
424.1792764239031
 30
0.0
 10
358.875252188927
 20
424.1792764239031
 30
0.0
 10
358.875252188927
 20
424.1792764239031
 30
0.0
 10
361.9234726742761
 20
424.1792764239031
 30
0.0
 10
361.9234726742761
 20
424.1792764239031
 30
0.0
 10
361.9234726742761
 20
424.1792764239031
 30
0.0
 10
361.9234726742761
 20
423.6373629040733
 30
0.0
 10
361.9234726742761
 20
423.6373629040733
 30
0.0
 10
361.9234726742761
 20
423.6373629040733
 30
0.0
 10
359.42577844747
 20
423.6373629040733
 30
0.0
 10
359.42577844747
 20
423.6373629040733
 30
0.0
 10
359.42577844747
 20
423.6373629040733
 30
0.0
 10
359.42577844747
 20
421.723612362017
 30
0.0
 10
359.42577844747
 20
421.723612362017
 30
0.0
 10
359.6628010168552
 20
421.9861286379931
 30
0.0
 10
360.0352158388106
 20
422.1384018584411
 30
0.0
 10
360.5096054871295
 20
422.1384018584411
 30
0.0
 10
360.9585014288576
 20
422.1384018584411
 30
0.0
 10
361.3140352829354
 20
421.9943968671577
 30
0.0
 10
361.5510578523206
 20
421.7573742977725
 30
0.0
 10
361.9913410553355
 20
421.3170910947575
 30
0.0
 10
362.0505966976818
 20
420.7159219325815
 30
0.0
 10
362.0505966976818
 20
420.1483424513866
 30
0.0
 10
362.0505966976818
 20
419.5471732892104
 30
0.0
 10
361.9999537940486
 20
418.9801105723383
 30
0.0
 10
361.5679388201983
 20
418.548095598488
 30
0.0
 10
361.2885415763445
 20
418.2686983546342
 30
0.0
 10
360.8989012769628
 20
418.0995441663085
 30
0.0
 10
360.3656004958461
 20
418.0995441663085
 30
0.0
 10
359.840567943894
 20
418.0995441663085
 30
0.0
 10
359.4171657087568
 20
418.2686983546342
 30
0.0
 10
359.1546494327808
 20
418.5312146306103
 30
0.0
  0
HATCH
  5
300
330
2B1
100
AcDbEntity
  8
Layer 1
 62
     7
100
AcDbHatch
 10
0.0
 20
0.0
 30
0.0
210
0.0
220
0.0
230
1.0
  2
SOLID
 70
     1
 71
     0
 91
        1
 92
        1
 93
        1
 72
     4
 94
        3
 73
     0
 74
     1
 95
       62
 96
       58
 40
0.0
 40
0.0
 40
0.0
 40
0.0
 40
1.0
 40
1.0
 40
1.0
 40
2.0
 40
2.0
 40
2.0
 40
3.0
 40
3.0
 40
3.0
 40
4.0
 40
4.0
 40
4.0
 40
5.0
 40
5.0
 40
5.0
 40
6.0
 40
6.0
 40
6.0
 40
7.0
 40
7.0
 40
7.0
 40
8.0
 40
8.0
 40
8.0
 40
9.0
 40
9.0
 40
9.0
 40
10.0
 40
10.0
 40
10.0
 40
11.0
 40
11.0
 40
11.0
 40
12.0
 40
12.0
 40
12.0
 40
13.0
 40
13.0
 40
13.0
 40
14.0
 40
14.0
 40
14.0
 40
15.0
 40
15.0
 40
15.0
 40
16.0
 40
16.0
 40
16.0
 40
17.0
 40
17.0
 40
17.0
 40
18.0
 40
18.0
 40
18.0
 40
19.0
 40
19.0
 40
19.0
 40
19.0
 10
359.1546494327808
 20
418.5312146306103
 10
358.8921331568048
 20
418.8023436452995
 10
358.7653536429476
 20
419.1492647606641
 10
358.7312471976436
 20
419.5812797345144
 10
358.7312471976436
 20
419.5812797345144
 10
359.3410290985328
 20
419.5812797345144
 10
359.3410290985328
 20
419.5812797345144
 10
359.4171657087568
 20
418.9801105723383
 10
359.7306693979146
 20
418.6414576861383
 10
360.3656004958461
 20
418.6414576861383
 10
360.6618787075776
 20
418.6414576861383
 10
360.9330077222668
 20
418.7427434934046
 10
361.1107746493057
 20
418.920854929992
 10
361.4239338289149
 20
419.2340141096012
 10
361.4408147967926
 20
419.7166719870847
 10
361.4408147967926
 20
420.1483424513866
 10
361.4408147967926
 20
420.8854206304558
 10
361.2971543150577
 20
421.6051010773244
 10
360.4248561381924
 20
421.6051010773244
 10
359.8998235862404
 20
421.6051010773244
 10
359.5442897321626
 20
421.3680785079392
 10
359.42577844747
 20
421.0122001443129
 10
359.42577844747
 20
421.0122001443129
 10
358.875252188927
 20
421.0122001443129
 10
358.875252188927
 20
421.0122001443129
 10
358.875252188927
 20
421.0122001443129
 10
358.875252188927
 20
424.1792764239031
 10
358.875252188927
 20
424.1792764239031
 10
358.875252188927
 20
424.1792764239031
 10
361.9234726742761
 20
424.1792764239031
 10
361.9234726742761
 20
424.1792764239031
 10
361.9234726742761
 20
424.1792764239031
 10
361.9234726742761
 20
423.6373629040733
 10
361.9234726742761
 20
423.6373629040733
 10
361.9234726742761
 20
423.6373629040733
 10
359.42577844747
 20
423.6373629040733
 10
359.42577844747
 20
423.6373629040733
 10
359.42577844747
 20
423.6373629040733
 10
359.42577844747
 20
421.723612362017
 10
359.42577844747
 20
421.723612362017
 10
359.6628010168552
 20
421.9861286379931
 10
360.0352158388106
 20
422.1384018584411
 10
360.5096054871295
 20
422.1384018584411
 10
360.9585014288576
 20
422.1384018584411
 10
361.3140352829354
 20
421.9943968671577
 10
361.5510578523206
 20
421.7573742977725
 10
361.9913410553355
 20
421.3170910947575
 10
362.0505966976818
 20
420.7159219325815
 10
362.0505966976818
 20
420.1483424513866
 10
362.0505966976818
 20
419.5471732892104
 10
361.9999537940486
 20
418.9801105723383
 10
361.5679388201983
 20
418.548095598488
 10
361.2885415763445
 20
418.2686983546342
 10
360.8989012769628
 20
418.0995441663085
 10
360.3656004958461
 20
418.0995441663085
 10
359.840567943894
 20
418.0995441663085
 10
359.4171657087568
 20
418.2686983546342
 10
359.1546494327808
 20
418.5312146306103
 97
        0
 75
     2
 76
     1
 98
        0
  0
SPLINE
  5
301
330
2B1
100
AcDbEntity
  8
Layer 1
370
     0
100
AcDbSpline
210
0.0
220
0.0
230
1.0
 70
    11
 71
     3
 72
    65
 73
    61
 74
     0
 42
0.0000000001
 43
0.0000000001
 12
1.0
 22
0.0
 32
0.0
 13
1.0
 23
0.0
 33
0.0
 40
0.0
 40
0.0
 40
0.0
 40
0.0
 40
1.0
 40
1.0
 40
1.0
 40
2.0
 40
2.0
 40
2.0
 40
3.0
 40
3.0
 40
3.0
 40
4.0
 40
4.0
 40
4.0
 40
5.0
 40
5.0
 40
5.0
 40
6.0
 40
6.0
 40
6.0
 40
7.0
 40
7.0
 40
7.0
 40
8.0
 40
8.0
 40
8.0
 40
9.0
 40
9.0
 40
9.0
 40
10.0
 40
10.0
 40
10.0
 40
11.0
 40
11.0
 40
11.0
 40
12.0
 40
12.0
 40
12.0
 40
13.0
 40
13.0
 40
13.0
 40
14.0
 40
14.0
 40
14.0
 40
15.0
 40
15.0
 40
15.0
 40
16.0
 40
16.0
 40
16.0
 40
17.0
 40
17.0
 40
17.0
 40
18.0
 40
18.0
 40
18.0
 40
19.0
 40
19.0
 40
19.0
 40
20.0
 40
20.0
 40
20.0
 40
20.0
 10
368.9087482801687
 20
423.5694945230139
 30
0.0
 10
368.9087482801687
 20
423.5694945230139
 30
0.0
 10
368.493614274196
 20
423.1547050265898
 30
0.0
 10
368.493614274196
 20
423.1547050265898
 30
0.0
 10
368.1294676814052
 20
423.5016261419545
 30
0.0
 10
367.7146781849811
 20
423.6797375785419
 30
0.0
 10
367.0880153162141
 20
423.6797375785419
 30
0.0
 10
366.2753172912437
 20
423.6797375785419
 30
0.0
 10
365.8095403816379
 20
423.2308416368139
 30
0.0
 10
365.8095403816379
 20
422.5535358644137
 30
0.0
 10
365.8095403816379
 20
422.2569131431337
 30
0.0
 10
365.8942897305751
 20
422.0116223445839
 30
0.0
 10
366.0806693963271
 20
421.8507363854227
 30
0.0
 10
366.2667045525305
 20
421.6898504262616
 30
0.0
 10
366.5547145350974
 20
421.5882201094467
 30
0.0
 10
366.8678737147067
 20
421.537232696265
 30
0.0
 10
366.8678737147067
 20
421.537232696265
 30
0.0
 10
367.5706731936976
 20
421.4273341502856
 30
0.0
 10
367.5706731936976
 20
421.4273341502856
 30
0.0
 10
368.1294676814052
 20
421.3425848013484
 30
0.0
 10
368.3919839573812
 20
421.2409544845335
 30
0.0
 10
368.6631129720703
 20
420.9953191764352
 30
0.0
 10
368.9848848903927
 20
420.7159219325815
 30
0.0
 10
369.1712645561447
 20
420.309400665322
 30
0.0
 10
369.1712645561447
 20
419.8096895651865
 30
0.0
 10
369.1712645561447
 20
418.7513562321178
 30
0.0
 10
368.3496092829126
 20
418.0995441663085
 30
0.0
 10
367.0880153162141
 20
418.0995441663085
 30
0.0
 10
366.1905679423065
 20
418.0995441663085
 30
0.0
 10
365.5893987801305
 20
418.3279539969805
 30
0.0
 10
365.0306042924229
 20
418.8953612234012
 30
0.0
 10
365.0306042924229
 20
418.8953612234012
 30
0.0
 10
365.4622747567248
 20
419.327031687703
 30
0.0
 10
365.4622747567248
 20
419.327031687703
 30
0.0
 10
365.961813602086
 20
418.8274928423418
 30
0.0
 10
366.4275905116917
 20
418.6752196218937
 30
0.0
 10
367.1052407936403
 20
418.6752196218937
 30
0.0
 10
367.9940754288348
 20
418.6752196218937
 30
0.0
 10
368.5359889486646
 20
419.0817408891532
 30
0.0
 10
368.5359889486646
 20
419.7928085973087
 30
0.0
 10
368.5359889486646
 20
420.1145805156311
 30
0.0
 10
368.4429713705629
 20
420.3686563076683
 30
0.0
 10
368.2397107369331
 20
420.5467677442557
 30
0.0
 10
368.0533310711811
 20
420.7159219325815
 30
0.0
 10
367.8841768828553
 20
420.7751775749277
 30
0.0
 10
367.452161909005
 20
420.8430459559872
 30
0.0
 10
367.452161909005
 20
420.8430459559872
 30
0.0
 10
366.7493624300141
 20
420.944676272802
 30
0.0
 10
366.7493624300141
 20
420.944676272802
 30
0.0
 10
366.2753172912437
 20
421.0208128830261
 30
0.0
 10
365.9197834371659
 20
421.1648178743095
 30
0.0
 10
365.6486544224767
 20
421.4018404436947
 30
0.0
 10
365.3437634720322
 20
421.6729694583839
 30
0.0
 10
365.182877512871
 20
422.0453842803394
 30
0.0
 10
365.182877512871
 20
422.5363103869875
 30
0.0
 10
365.182877512871
 20
423.5608817843008
 30
0.0
 10
365.9197834371659
 20
424.2299193275363
 30
0.0
 10
367.113509022805
 20
424.2299193275363
 30
0.0
 10
367.8841768828553
 20
424.2299193275363
 30
0.0
 10
368.3919839573812
 20
424.0266586939065
 30
0.0
 10
368.9087482801687
 20
423.5694945230139
 30
0.0
  0
HATCH
  5
302
330
2B1
100
AcDbEntity
  8
Layer 1
 62
     7
100
AcDbHatch
 10
0.0
 20
0.0
 30
0.0
210
0.0
220
0.0
230
1.0
  2
SOLID
 70
     1
 71
     0
 91
        1
 92
        1
 93
        1
 72
     4
 94
        3
 73
     0
 74
     1
 95
       65
 96
       61
 40
0.0
 40
0.0
 40
0.0
 40
0.0
 40
1.0
 40
1.0
 40
1.0
 40
2.0
 40
2.0
 40
2.0
 40
3.0
 40
3.0
 40
3.0
 40
4.0
 40
4.0
 40
4.0
 40
5.0
 40
5.0
 40
5.0
 40
6.0
 40
6.0
 40
6.0
 40
7.0
 40
7.0
 40
7.0
 40
8.0
 40
8.0
 40
8.0
 40
9.0
 40
9.0
 40
9.0
 40
10.0
 40
10.0
 40
10.0
 40
11.0
 40
11.0
 40
11.0
 40
12.0
 40
12.0
 40
12.0
 40
13.0
 40
13.0
 40
13.0
 40
14.0
 40
14.0
 40
14.0
 40
15.0
 40
15.0
 40
15.0
 40
16.0
 40
16.0
 40
16.0
 40
17.0
 40
17.0
 40
17.0
 40
18.0
 40
18.0
 40
18.0
 40
19.0
 40
19.0
 40
19.0
 40
20.0
 40
20.0
 40
20.0
 40
20.0
 10
368.9087482801687
 20
423.5694945230139
 10
368.9087482801687
 20
423.5694945230139
 10
368.493614274196
 20
423.1547050265898
 10
368.493614274196
 20
423.1547050265898
 10
368.1294676814052
 20
423.5016261419545
 10
367.7146781849811
 20
423.6797375785419
 10
367.0880153162141
 20
423.6797375785419
 10
366.2753172912437
 20
423.6797375785419
 10
365.8095403816379
 20
423.2308416368139
 10
365.8095403816379
 20
422.5535358644137
 10
365.8095403816379
 20
422.2569131431337
 10
365.8942897305751
 20
422.0116223445839
 10
366.0806693963271
 20
421.8507363854227
 10
366.2667045525305
 20
421.6898504262616
 10
366.5547145350974
 20
421.5882201094467
 10
366.8678737147067
 20
421.537232696265
 10
366.8678737147067
 20
421.537232696265
 10
367.5706731936976
 20
421.4273341502856
 10
367.5706731936976
 20
421.4273341502856
 10
368.1294676814052
 20
421.3425848013484
 10
368.3919839573812
 20
421.2409544845335
 10
368.6631129720703
 20
420.9953191764352
 10
368.9848848903927
 20
420.7159219325815
 10
369.1712645561447
 20
420.309400665322
 10
369.1712645561447
 20
419.8096895651865
 10
369.1712645561447
 20
418.7513562321178
 10
368.3496092829126
 20
418.0995441663085
 10
367.0880153162141
 20
418.0995441663085
 10
366.1905679423065
 20
418.0995441663085
 10
365.5893987801305
 20
418.3279539969805
 10
365.0306042924229
 20
418.8953612234012
 10
365.0306042924229
 20
418.8953612234012
 10
365.4622747567248
 20
419.327031687703
 10
365.4622747567248
 20
419.327031687703
 10
365.961813602086
 20
418.8274928423418
 10
366.4275905116917
 20
418.6752196218937
 10
367.1052407936403
 20
418.6752196218937
 10
367.9940754288348
 20
418.6752196218937
 10
368.5359889486646
 20
419.0817408891532
 10
368.5359889486646
 20
419.7928085973087
 10
368.5359889486646
 20
420.1145805156311
 10
368.4429713705629
 20
420.3686563076683
 10
368.2397107369331
 20
420.5467677442557
 10
368.0533310711811
 20
420.7159219325815
 10
367.8841768828553
 20
420.7751775749277
 10
367.452161909005
 20
420.8430459559872
 10
367.452161909005
 20
420.8430459559872
 10
366.7493624300141
 20
420.944676272802
 10
366.7493624300141
 20
420.944676272802
 10
366.2753172912437
 20
421.0208128830261
 10
365.9197834371659
 20
421.1648178743095
 10
365.6486544224767
 20
421.4018404436947
 10
365.3437634720322
 20
421.6729694583839
 10
365.182877512871
 20
422.0453842803394
 10
365.182877512871
 20
422.5363103869875
 10
365.182877512871
 20
423.5608817843008
 10
365.9197834371659
 20
424.2299193275363
 10
367.113509022805
 20
424.2299193275363
 10
367.8841768828553
 20
424.2299193275363
 10
368.3919839573812
 20
424.0266586939065
 10
368.9087482801687
 20
423.5694945230139
 97
        0
 75
     2
 76
     1
 98
        0
  0
SPLINE
  5
303
330
2B1
100
AcDbEntity
  8
Layer 1
370
     0
100
AcDbSpline
210
0.0
220
0.0
230
1.0
 70
    11
 71
     3
 72
    53
 73
    49
 74
     0
 42
0.0000000001
 43
0.0000000001
 12
1.0
 22
0.0
 32
0.0
 13
1.0
 23
0.0
 33
0.0
 40
0.0
 40
0.0
 40
0.0
 40
0.0
 40
1.0
 40
1.0
 40
1.0
 40
2.0
 40
2.0
 40
2.0
 40
3.0
 40
3.0
 40
3.0
 40
4.0
 40
4.0
 40
4.0
 40
5.0
 40
5.0
 40
5.0
 40
6.0
 40
6.0
 40
6.0
 40
7.0
 40
7.0
 40
7.0
 40
8.0
 40
8.0
 40
8.0
 40
9.0
 40
9.0
 40
9.0
 40
10.0
 40
10.0
 40
10.0
 40
11.0
 40
11.0
 40
11.0
 40
12.0
 40
12.0
 40
12.0
 40
13.0
 40
13.0
 40
13.0
 40
14.0
 40
14.0
 40
14.0
 40
15.0
 40
15.0
 40
15.0
 40
16.0
 40
16.0
 40
16.0
 40
16.0
 10
371.1184325244079
 20
422.31616878548
 30
0.0
 10
371.1184325244079
 20
422.31616878548
 30
0.0
 10
372.0072671596023
 20
422.31616878548
 30
0.0
 10
372.0072671596023
 20
422.31616878548
 30
0.0
 10
372.0072671596023
 20
422.31616878548
 30
0.0
 10
372.0072671596023
 20
421.8507363854227
 30
0.0
 10
372.0072671596023
 20
421.8507363854227
 30
0.0
 10
372.0072671596023
 20
421.8507363854227
 30
0.0
 10
371.1184325244079
 20
421.8507363854227
 30
0.0
 10
371.1184325244079
 20
421.8507363854227
 30
0.0
 10
371.1184325244079
 20
421.8507363854227
 30
0.0
 10
371.1184325244079
 20
419.2846570132344
 30
0.0
 10
371.1184325244079
 20
419.2846570132344
 30
0.0
 10
371.1184325244079
 20
418.8953612234012
 30
0.0
 10
371.2961994514468
 20
418.6752196218937
 30
0.0
 10
371.68549524128
 20
418.6752196218937
 30
0.0
 10
371.68549524128
 20
418.6752196218937
 30
0.0
 10
372.0072671596023
 20
418.6752196218937
 30
0.0
 10
372.0072671596023
 20
418.6752196218937
 30
0.0
 10
372.0072671596023
 20
418.6752196218937
 30
0.0
 10
372.0072671596023
 20
418.1501870699416
 30
0.0
 10
372.0072671596023
 20
418.1501870699416
 30
0.0
 10
372.0072671596023
 20
418.1501870699416
 30
0.0
 10
371.5755966953006
 20
418.1501870699416
 30
0.0
 10
371.5755966953006
 20
418.1501870699416
 30
0.0
 10
370.8641844775965
 20
418.1501870699416
 30
0.0
 10
370.5086506235187
 20
418.6497259153028
 30
0.0
 10
370.5086506235187
 20
419.2677760453567
 30
0.0
 10
370.5086506235187
 20
419.2677760453567
 30
0.0
 10
370.5086506235187
 20
421.8507363854227
 30
0.0
 10
370.5086506235187
 20
421.8507363854227
 30
0.0
 10
370.5086506235187
 20
421.8507363854227
 30
0.0
 10
369.9836180715666
 20
421.8507363854227
 30
0.0
 10
369.9836180715666
 20
421.8507363854227
 30
0.0
 10
369.9836180715666
 20
421.8507363854227
 30
0.0
 10
369.9836180715666
 20
422.31616878548
 30
0.0
 10
369.9836180715666
 20
422.31616878548
 30
0.0
 10
369.9836180715666
 20
422.31616878548
 30
0.0
 10
370.5086506235187
 20
422.31616878548
 30
0.0
 10
370.5086506235187
 20
422.31616878548
 30
0.0
 10
370.5086506235187
 20
422.31616878548
 30
0.0
 10
370.5086506235187
 20
423.5949882296047
 30
0.0
 10
370.5086506235187
 20
423.5949882296047
 30
0.0
 10
370.5086506235187
 20
423.5949882296047
 30
0.0
 10
371.1184325244079
 20
423.5949882296047
 30
0.0
 10
371.1184325244079
 20
423.5949882296047
 30
0.0
 10
371.1184325244079
 20
423.5949882296047
 30
0.0
 10
371.1184325244079
 20
422.31616878548
 30
0.0
 10
371.1184325244079
 20
422.31616878548
 30
0.0
  0
HATCH
  5
304
330
2B1
100
AcDbEntity
  8
Layer 1
 62
     7
100
AcDbHatch
 10
0.0
 20
0.0
 30
0.0
210
0.0
220
0.0
230
1.0
  2
SOLID
 70
     1
 71
     0
 91
        1
 92
        1
 93
        1
 72
     4
 94
        3
 73
     0
 74
     1
 95
       53
 96
       49
 40
0.0
 40
0.0
 40
0.0
 40
0.0
 40
1.0
 40
1.0
 40
1.0
 40
2.0
 40
2.0
 40
2.0
 40
3.0
 40
3.0
 40
3.0
 40
4.0
 40
4.0
 40
4.0
 40
5.0
 40
5.0
 40
5.0
 40
6.0
 40
6.0
 40
6.0
 40
7.0
 40
7.0
 40
7.0
 40
8.0
 40
8.0
 40
8.0
 40
9.0
 40
9.0
 40
9.0
 40
10.0
 40
10.0
 40
10.0
 40
11.0
 40
11.0
 40
11.0
 40
12.0
 40
12.0
 40
12.0
 40
13.0
 40
13.0
 40
13.0
 40
14.0
 40
14.0
 40
14.0
 40
15.0
 40
15.0
 40
15.0
 40
16.0
 40
16.0
 40
16.0
 40
16.0
 10
371.1184325244079
 20
422.31616878548
 10
371.1184325244079
 20
422.31616878548
 10
372.0072671596023
 20
422.31616878548
 10
372.0072671596023
 20
422.31616878548
 10
372.0072671596023
 20
422.31616878548
 10
372.0072671596023
 20
421.8507363854227
 10
372.0072671596023
 20
421.8507363854227
 10
372.0072671596023
 20
421.8507363854227
 10
371.1184325244079
 20
421.8507363854227
 10
371.1184325244079
 20
421.8507363854227
 10
371.1184325244079
 20
421.8507363854227
 10
371.1184325244079
 20
419.2846570132344
 10
371.1184325244079
 20
419.2846570132344
 10
371.1184325244079
 20
418.8953612234012
 10
371.2961994514468
 20
418.6752196218937
 10
371.68549524128
 20
418.6752196218937
 10
371.68549524128
 20
418.6752196218937
 10
372.0072671596023
 20
418.6752196218937
 10
372.0072671596023
 20
418.6752196218937
 10
372.0072671596023
 20
418.6752196218937
 10
372.0072671596023
 20
418.1501870699416
 10
372.0072671596023
 20
418.1501870699416
 10
372.0072671596023
 20
418.1501870699416
 10
371.5755966953006
 20
418.1501870699416
 10
371.5755966953006
 20
418.1501870699416
 10
370.8641844775965
 20
418.1501870699416
 10
370.5086506235187
 20
418.6497259153028
 10
370.5086506235187
 20
419.2677760453567
 10
370.5086506235187
 20
419.2677760453567
 10
370.5086506235187
 20
421.8507363854227
 10
370.5086506235187
 20
421.8507363854227
 10
370.5086506235187
 20
421.8507363854227
 10
369.9836180715666
 20
421.8507363854227
 10
369.9836180715666
 20
421.8507363854227
 10
369.9836180715666
 20
421.8507363854227
 10
369.9836180715666
 20
422.31616878548
 10
369.9836180715666
 20
422.31616878548
 10
369.9836180715666
 20
422.31616878548
 10
370.5086506235187
 20
422.31616878548
 10
370.5086506235187
 20
422.31616878548
 10
370.5086506235187
 20
422.31616878548
 10
370.5086506235187
 20
423.5949882296047
 10
370.5086506235187
 20
423.5949882296047
 10
370.5086506235187
 20
423.5949882296047
 10
371.1184325244079
 20
423.5949882296047
 10
371.1184325244079
 20
423.5949882296047
 10
371.1184325244079
 20
423.5949882296047
 10
371.1184325244079
 20
422.31616878548
 10
371.1184325244079
 20
422.31616878548
 97
        0
 75
     2
 76
     1
 98
        0
  0
SPLINE
  5
305
330
2B1
100
AcDbEntity
  8
Layer 1
370
     0
100
AcDbSpline
210
0.0
220
0.0
230
1.0
 70
    11
 71
     3
 72
    35
 73
    31
 74
     0
 42
0.0000000001
 43
0.0000000001
 12
1.0
 22
0.0
 32
0.0
 13
1.0
 23
0.0
 33
0.0
 40
0.0
 40
0.0
 40
0.0
 40
0.0
 40
1.0
 40
1.0
 40
1.0
 40
2.0
 40
2.0
 40
2.0
 40
3.0
 40
3.0
 40
3.0
 40
4.0
 40
4.0
 40
4.0
 40
5.0
 40
5.0
 40
5.0
 40
6.0
 40
6.0
 40
6.0
 40
7.0
 40
7.0
 40
7.0
 40
8.0
 40
8.0
 40
8.0
 40
9.0
 40
9.0
 40
9.0
 40
10.0
 40
10.0
 40
10.0
 40
10.0
 10
375.9949651837791
 20
421.9775158992799
 30
0.0
 10
375.9949651837791
 20
421.9775158992799
 30
0.0
 10
375.546069242051
 20
421.5203517283873
 30
0.0
 10
375.546069242051
 20
421.5203517283873
 30
0.0
 10
375.3173149018304
 20
421.7491060686079
 30
0.0
 10
375.1481607135046
 20
421.8252426788319
 30
0.0
 10
374.8263887951823
 20
421.8252426788319
 30
0.0
 10
374.2166068942931
 20
421.8252426788319
 30
0.0
 10
373.8273111044599
 20
421.3425848013484
 30
0.0
 10
373.8273111044599
 20
420.7076537034168
 30
0.0
 10
373.8273111044599
 20
420.7076537034168
 30
0.0
 10
373.8273111044599
 20
418.1501870699416
 30
0.0
 10
373.8273111044599
 20
418.1501870699416
 30
0.0
 10
373.8273111044599
 20
418.1501870699416
 30
0.0
 10
373.2175292035706
 20
418.1501870699416
 30
0.0
 10
373.2175292035706
 20
418.1501870699416
 30
0.0
 10
373.2175292035706
 20
418.1501870699416
 30
0.0
 10
373.2175292035706
 20
422.31616878548
 30
0.0
 10
373.2175292035706
 20
422.31616878548
 30
0.0
 10
373.2175292035706
 20
422.31616878548
 30
0.0
 10
373.8273111044599
 20
422.31616878548
 30
0.0
 10
373.8273111044599
 20
422.31616878548
 30
0.0
 10
373.8273111044599
 20
422.31616878548
 30
0.0
 10
373.8273111044599
 20
421.8083617109542
 30
0.0
 10
373.8273111044599
 20
421.8083617109542
 30
0.0
 10
374.0557209351319
 20
422.1552828263189
 30
0.0
 10
374.5128851060246
 20
422.3671561986617
 30
0.0
 10
374.9955429835081
 20
422.3671561986617
 30
0.0
 10
375.393796021603
 20
422.3671561986617
 30
0.0
 10
375.6983424624991
 20
422.2741386205599
 30
0.0
 10
375.9949651837791
 20
421.9775158992799
 30
0.0
  0
HATCH
  5
306
330
2B1
100
AcDbEntity
  8
Layer 1
 62
     7
100
AcDbHatch
 10
0.0
 20
0.0
 30
0.0
210
0.0
220
0.0
230
1.0
  2
SOLID
 70
     1
 71
     0
 91
        1
 92
        1
 93
        1
 72
     4
 94
        3
 73
     0
 74
     1
 95
       35
 96
       31
 40
0.0
 40
0.0
 40
0.0
 40
0.0
 40
1.0
 40
1.0
 40
1.0
 40
2.0
 40
2.0
 40
2.0
 40
3.0
 40
3.0
 40
3.0
 40
4.0
 40
4.0
 40
4.0
 40
5.0
 40
5.0
 40
5.0
 40
6.0
 40
6.0
 40
6.0
 40
7.0
 40
7.0
 40
7.0
 40
8.0
 40
8.0
 40
8.0
 40
9.0
 40
9.0
 40
9.0
 40
10.0
 40
10.0
 40
10.0
 40
10.0
 10
375.9949651837791
 20
421.9775158992799
 10
375.9949651837791
 20
421.9775158992799
 10
375.546069242051
 20
421.5203517283873
 10
375.546069242051
 20
421.5203517283873
 10
375.3173149018304
 20
421.7491060686079
 10
375.1481607135046
 20
421.8252426788319
 10
374.8263887951823
 20
421.8252426788319
 10
374.2166068942931
 20
421.8252426788319
 10
373.8273111044599
 20
421.3425848013484
 10
373.8273111044599
 20
420.7076537034168
 10
373.8273111044599
 20
420.7076537034168
 10
373.8273111044599
 20
418.1501870699416
 10
373.8273111044599
 20
418.1501870699416
 10
373.8273111044599
 20
418.1501870699416
 10
373.2175292035706
 20
418.1501870699416
 10
373.2175292035706
 20
418.1501870699416
 10
373.2175292035706
 20
418.1501870699416
 10
373.2175292035706
 20
422.31616878548
 10
373.2175292035706
 20
422.31616878548
 10
373.2175292035706
 20
422.31616878548
 10
373.8273111044599
 20
422.31616878548
 10
373.8273111044599
 20
422.31616878548
 10
373.8273111044599
 20
422.31616878548
 10
373.8273111044599
 20
421.8083617109542
 10
373.8273111044599
 20
421.8083617109542
 10
374.0557209351319
 20
422.1552828263189
 10
374.5128851060246
 20
422.3671561986617
 10
374.9955429835081
 20
422.3671561986617
 10
375.393796021603
 20
422.3671561986617
 10
375.6983424624991
 20
422.2741386205599
 10
375.9949651837791
 20
421.9775158992799
 97
        0
 75
     2
 76
     1
 98
        0
  0
SPLINE
  5
307
330
2B1
100
AcDbEntity
  8
Layer 1
370
     0
100
AcDbSpline
210
0.0
220
0.0
230
1.0
 70
    11
 71
     3
 72
    47
 73
    43
 74
     0
 42
0.0000000001
 43
0.0000000001
 12
1.0
 22
0.0
 32
0.0
 13
1.0
 23
0.0
 33
0.0
 40
0.0
 40
0.0
 40
0.0
 40
0.0
 40
1.0
 40
1.0
 40
1.0
 40
2.0
 40
2.0
 40
2.0
 40
3.0
 40
3.0
 40
3.0
 40
4.0
 40
4.0
 40
4.0
 40
5.0
 40
5.0
 40
5.0
 40
6.0
 40
6.0
 40
6.0
 40
7.0
 40
7.0
 40
7.0
 40
8.0
 40
8.0
 40
8.0
 40
9.0
 40
9.0
 40
9.0
 40
10.0
 40
10.0
 40
10.0
 40
11.0
 40
11.0
 40
11.0
 40
12.0
 40
12.0
 40
12.0
 40
13.0
 40
13.0
 40
13.0
 40
14.0
 40
14.0
 40
14.0
 40
14.0
 10
379.6695040283465
 20
420.9784382085575
 30
0.0
 10
379.6695040283465
 20
420.9784382085575
 30
0.0
 10
379.6695040283465
 20
418.1501870699416
 30
0.0
 10
379.6695040283465
 20
418.1501870699416
 30
0.0
 10
379.6695040283465
 20
418.1501870699416
 30
0.0
 10
379.0597221274573
 20
418.1501870699416
 30
0.0
 10
379.0597221274573
 20
418.1501870699416
 30
0.0
 10
379.0597221274573
 20
418.1501870699416
 30
0.0
 10
379.0597221274573
 20
418.548095598488
 30
0.0
 10
379.0597221274573
 20
418.548095598488
 30
0.0
 10
378.7296819799704
 20
418.2180554510011
 30
0.0
 10
378.4161782908126
 20
418.0995441663085
 30
0.0
 10
377.8573838031051
 20
418.0995441663085
 30
0.0
 10
377.2817083475199
 20
418.0995441663085
 30
0.0
 10
376.9685491679107
 20
418.2008299735748
 30
0.0
 10
376.6805391853438
 20
418.4805717269771
 30
0.0
 10
376.4686658130009
 20
418.6834878510583
 30
0.0
 10
376.367035496186
 20
418.9969915402161
 30
0.0
 10
376.367035496186
 20
419.327031687703
 30
0.0
 10
376.367035496186
 20
420.0639376119979
 30
0.0
 10
376.8837998189735
 20
420.5295422668294
 30
0.0
 10
377.8150091286365
 20
420.5295422668294
 30
0.0
 10
377.8150091286365
 20
420.5295422668294
 30
0.0
 10
379.0597221274573
 20
420.5295422668294
 30
0.0
 10
379.0597221274573
 20
420.5295422668294
 30
0.0
 10
379.0597221274573
 20
420.5295422668294
 30
0.0
 10
379.0597221274573
 20
420.9277953049243
 30
0.0
 10
379.0597221274573
 20
420.9277953049243
 30
0.0
 10
379.0597221274573
 20
421.5289644671004
 30
0.0
 10
378.7634439157258
 20
421.8421236467096
 30
0.0
 10
377.9927760556754
 20
421.8421236467096
 30
0.0
 10
377.4680880132719
 20
421.8421236467096
 30
0.0
 10
377.1969589985827
 20
421.7067313941393
 30
0.0
 10
376.9430554613198
 20
421.3594657692261
 30
0.0
 10
376.9430554613198
 20
421.3594657692261
 30
0.0
 10
376.5279214553472
 20
421.7404933298948
 30
0.0
 10
376.5279214553472
 20
421.7404933298948
 30
0.0
 10
376.8920680481381
 20
422.2231512073782
 30
0.0
 10
377.3154702832753
 20
422.3671561986617
 30
0.0
 10
378.0013887943886
 20
422.3671561986617
 30
0.0
 10
379.1275905085167
 20
422.3671561986617
 30
0.0
 10
379.6695040283465
 20
421.8758855824651
 30
0.0
 10
379.6695040283465
 20
420.9784382085575
 30
0.0
  0
SPLINE
  5
308
330
2B1
100
AcDbEntity
  8
Layer 1
370
     0
100
AcDbSpline
210
0.0
220
0.0
230
1.0
 70
    11
 71
     3
 72
    23
 73
    19
 74
     0
 42
0.0000000001
 43
0.0000000001
 12
1.0
 22
0.0
 32
0.0
 13
1.0
 23
0.0
 33
0.0
 40
0.0
 40
0.0
 40
0.0
 40
0.0
 40
1.0
 40
1.0
 40
1.0
 40
2.0
 40
2.0
 40
2.0
 40
3.0
 40
3.0
 40
3.0
 40
4.0
 40
4.0
 40
4.0
 40
5.0
 40
5.0
 40
5.0
 40
6.0
 40
6.0
 40
6.0
 40
6.0
 10
377.8997584775737
 20
420.0722058411625
 30
0.0
 10
377.2730956088067
 20
420.0722058411625
 30
0.0
 10
376.9599364291975
 20
419.8265705330642
 30
0.0
 10
376.9599364291975
 20
419.3356444264161
 30
0.0
 10
376.9599364291975
 20
418.8529865489326
 30
0.0
 10
377.256214640929
 20
418.624232208712
 30
0.0
 10
377.9252521841645
 20
418.624232208712
 30
0.0
 10
378.2725178090777
 20
418.624232208712
 30
0.0
 10
378.5770642499738
 20
418.658338654016
 30
0.0
 10
378.848193264663
 20
418.9036294525658
 30
0.0
 10
378.9921982559464
 20
419.0393662146846
 30
0.0
 10
379.0597221274573
 20
419.2763887840698
 30
0.0
 10
379.0597221274573
 20
419.623654408983
 30
0.0
 10
379.0597221274573
 20
419.623654408983
 30
0.0
 10
379.0597221274573
 20
420.0722058411625
 30
0.0
 10
379.0597221274573
 20
420.0722058411625
 30
0.0
 10
379.0597221274573
 20
420.0722058411625
 30
0.0
 10
377.8997584775737
 20
420.0722058411625
 30
0.0
 10
377.8997584775737
 20
420.0722058411625
 30
0.0
  0
HATCH
  5
309
330
2B1
100
AcDbEntity
  8
Layer 1
 62
     7
100
AcDbHatch
 10
0.0
 20
0.0
 30
0.0
210
0.0
220
0.0
230
1.0
  2
SOLID
 70
     1
 71
     0
 91
        2
 92
        1
 93
        1
 72
     4
 94
        3
 73
     0
 74
     1
 95
       47
 96
       43
 40
0.0
 40
0.0
 40
0.0
 40
0.0
 40
1.0
 40
1.0
 40
1.0
 40
2.0
 40
2.0
 40
2.0
 40
3.0
 40
3.0
 40
3.0
 40
4.0
 40
4.0
 40
4.0
 40
5.0
 40
5.0
 40
5.0
 40
6.0
 40
6.0
 40
6.0
 40
7.0
 40
7.0
 40
7.0
 40
8.0
 40
8.0
 40
8.0
 40
9.0
 40
9.0
 40
9.0
 40
10.0
 40
10.0
 40
10.0
 40
11.0
 40
11.0
 40
11.0
 40
12.0
 40
12.0
 40
12.0
 40
13.0
 40
13.0
 40
13.0
 40
14.0
 40
14.0
 40
14.0
 40
14.0
 10
379.6695040283465
 20
420.9784382085575
 10
379.6695040283465
 20
420.9784382085575
 10
379.6695040283465
 20
418.1501870699416
 10
379.6695040283465
 20
418.1501870699416
 10
379.6695040283465
 20
418.1501870699416
 10
379.0597221274573
 20
418.1501870699416
 10
379.0597221274573
 20
418.1501870699416
 10
379.0597221274573
 20
418.1501870699416
 10
379.0597221274573
 20
418.548095598488
 10
379.0597221274573
 20
418.548095598488
 10
378.7296819799704
 20
418.2180554510011
 10
378.4161782908126
 20
418.0995441663085
 10
377.8573838031051
 20
418.0995441663085
 10
377.2817083475199
 20
418.0995441663085
 10
376.9685491679107
 20
418.2008299735748
 10
376.6805391853438
 20
418.4805717269771
 10
376.4686658130009
 20
418.6834878510583
 10
376.367035496186
 20
418.9969915402161
 10
376.367035496186
 20
419.327031687703
 10
376.367035496186
 20
420.0639376119979
 10
376.8837998189735
 20
420.5295422668294
 10
377.8150091286365
 20
420.5295422668294
 10
377.8150091286365
 20
420.5295422668294
 10
379.0597221274573
 20
420.5295422668294
 10
379.0597221274573
 20
420.5295422668294
 10
379.0597221274573
 20
420.5295422668294
 10
379.0597221274573
 20
420.9277953049243
 10
379.0597221274573
 20
420.9277953049243
 10
379.0597221274573
 20
421.5289644671004
 10
378.7634439157258
 20
421.8421236467096
 10
377.9927760556754
 20
421.8421236467096
 10
377.4680880132719
 20
421.8421236467096
 10
377.1969589985827
 20
421.7067313941393
 10
376.9430554613198
 20
421.3594657692261
 10
376.9430554613198
 20
421.3594657692261
 10
376.5279214553472
 20
421.7404933298948
 10
376.5279214553472
 20
421.7404933298948
 10
376.8920680481381
 20
422.2231512073782
 10
377.3154702832753
 20
422.3671561986617
 10
378.0013887943886
 20
422.3671561986617
 10
379.1275905085167
 20
422.3671561986617
 10
379.6695040283465
 20
421.8758855824651
 10
379.6695040283465
 20
420.9784382085575
 97
        0
 92
        1
 93
        1
 72
     4
 94
        3
 73
     0
 74
     1
 95
       23
 96
       19
 40
0.0
 40
0.0
 40
0.0
 40
0.0
 40
1.0
 40
1.0
 40
1.0
 40
2.0
 40
2.0
 40
2.0
 40
3.0
 40
3.0
 40
3.0
 40
4.0
 40
4.0
 40
4.0
 40
5.0
 40
5.0
 40
5.0
 40
6.0
 40
6.0
 40
6.0
 40
6.0
 10
377.8997584775737
 20
420.0722058411625
 10
377.2730956088067
 20
420.0722058411625
 10
376.9599364291975
 20
419.8265705330642
 10
376.9599364291975
 20
419.3356444264161
 10
376.9599364291975
 20
418.8529865489326
 10
377.256214640929
 20
418.624232208712
 10
377.9252521841645
 20
418.624232208712
 10
378.2725178090777
 20
418.624232208712
 10
378.5770642499738
 20
418.658338654016
 10
378.848193264663
 20
418.9036294525658
 10
378.9921982559464
 20
419.0393662146846
 10
379.0597221274573
 20
419.2763887840698
 10
379.0597221274573
 20
419.623654408983
 10
379.0597221274573
 20
419.623654408983
 10
379.0597221274573
 20
420.0722058411625
 10
379.0597221274573
 20
420.0722058411625
 10
379.0597221274573
 20
420.0722058411625
 10
377.8997584775737
 20
420.0722058411625
 10
377.8997584775737
 20
420.0722058411625
 97
        0
 75
     2
 76
     1
 98
        0
  0
SPLINE
  5
30A
330
2B1
100
AcDbEntity
  8
Layer 1
370
     0
100
AcDbSpline
210
0.0
220
0.0
230
1.0
 70
    11
 71
     3
 72
    38
 73
    34
 74
     0
 42
0.0000000001
 43
0.0000000001
 12
1.0
 22
0.0
 32
0.0
 13
1.0
 23
0.0
 33
0.0
 40
0.0
 40
0.0
 40
0.0
 40
0.0
 40
1.0
 40
1.0
 40
1.0
 40
2.0
 40
2.0
 40
2.0
 40
3.0
 40
3.0
 40
3.0
 40
4.0
 40
4.0
 40
4.0
 40
5.0
 40
5.0
 40
5.0
 40
6.0
 40
6.0
 40
6.0
 40
7.0
 40
7.0
 40
7.0
 40
8.0
 40
8.0
 40
8.0
 40
9.0
 40
9.0
 40
9.0
 40
10.0
 40
10.0
 40
10.0
 40
11.0
 40
11.0
 40
11.0
 40
11.0
 10
383.9534802642547
 20
422.0030096058708
 30
0.0
 10
384.3686142702273
 20
421.5882201094467
 30
0.0
 10
384.461631848329
 20
420.9023015983335
 30
0.0
 10
384.461631848329
 20
420.2332640550979
 30
0.0
 10
384.461631848329
 20
419.5643987666367
 30
0.0
 10
384.3686142702273
 20
418.886748484688
 30
0.0
 10
383.9534802642547
 20
418.4633462495509
 30
0.0
 10
383.7333386627473
 20
418.2432046480434
 30
0.0
 10
383.3695365795049
 20
418.0995441663085
 30
0.0
 10
382.9375216056545
 20
418.0995441663085
 30
0.0
 10
382.4803574347619
 20
418.0995441663085
 30
0.0
 10
382.1075981032578
 20
418.2094427122879
 30
0.0
 10
381.7606769878932
 20
418.6414576861383
 30
0.0
 10
381.7606769878932
 20
418.6414576861383
 30
0.0
 10
381.7606769878932
 20
416.2874239410671
 30
0.0
 10
381.7606769878932
 20
416.2874239410671
 30
0.0
 10
381.7606769878932
 20
416.2874239410671
 30
0.0
 10
381.150895087004
 20
416.2874239410671
 30
0.0
 10
381.150895087004
 20
416.2874239410671
 30
0.0
 10
381.150895087004
 20
416.2874239410671
 30
0.0
 10
381.150895087004
 20
422.31616878548
 30
0.0
 10
381.150895087004
 20
422.31616878548
 30
0.0
 10
381.150895087004
 20
422.31616878548
 30
0.0
 10
381.7606769878932
 20
422.31616878548
 30
0.0
 10
381.7606769878932
 20
422.31616878548
 30
0.0
 10
381.7606769878932
 20
422.31616878548
 30
0.0
 10
381.7606769878932
 20
421.8252426788319
 30
0.0
 10
381.7606769878932
 20
421.8252426788319
 30
0.0
 10
382.1075981032578
 20
422.2569131431337
 30
0.0
 10
382.4717446960487
 20
422.3671561986617
 30
0.0
 10
382.9375216056545
 20
422.3671561986617
 30
0.0
 10
383.3695365795049
 20
422.3671561986617
 30
0.0
 10
383.7333386627473
 20
422.2231512073782
 30
0.0
 10
383.9534802642547
 20
422.0030096058708
 30
0.0
  0
SPLINE
  5
30B
330
2B1
100
AcDbEntity
  8
Layer 1
370
     0
100
AcDbSpline
210
0.0
220
0.0
230
1.0
 70
    11
 71
     3
 72
    17
 73
    13
 74
     0
 42
0.0000000001
 43
0.0000000001
 12
1.0
 22
0.0
 32
0.0
 13
1.0
 23
0.0
 33
0.0
 40
0.0
 40
0.0
 40
0.0
 40
0.0
 40
1.0
 40
1.0
 40
1.0
 40
2.0
 40
2.0
 40
2.0
 40
3.0
 40
3.0
 40
3.0
 40
4.0
 40
4.0
 40
4.0
 40
4.0
 10
381.7606769878932
 20
420.2332640550979
 30
0.0
 10
381.7606769878932
 20
419.4203937753533
 30
0.0
 10
381.8960692404635
 20
418.6414576861383
 30
0.0
 10
382.8103975822488
 20
418.6414576861383
 30
0.0
 10
383.7164576948695
 20
418.6414576861383
 30
0.0
 10
383.8518499474399
 20
419.4203937753533
 30
0.0
 10
383.8518499474399
 20
420.2332640550979
 30
0.0
 10
383.8518499474399
 20
421.0463065896169
 30
0.0
 10
383.7164576948695
 20
421.8252426788319
 30
0.0
 10
382.8103975822488
 20
421.8252426788319
 30
0.0
 10
381.8960692404635
 20
421.8252426788319
 30
0.0
 10
381.7606769878932
 20
421.0463065896169
 30
0.0
 10
381.7606769878932
 20
420.2332640550979
 30
0.0
  0
HATCH
  5
30C
330
2B1
100
AcDbEntity
  8
Layer 1
 62
     7
100
AcDbHatch
 10
0.0
 20
0.0
 30
0.0
210
0.0
220
0.0
230
1.0
  2
SOLID
 70
     1
 71
     0
 91
        2
 92
        1
 93
        1
 72
     4
 94
        3
 73
     0
 74
     1
 95
       38
 96
       34
 40
0.0
 40
0.0
 40
0.0
 40
0.0
 40
1.0
 40
1.0
 40
1.0
 40
2.0
 40
2.0
 40
2.0
 40
3.0
 40
3.0
 40
3.0
 40
4.0
 40
4.0
 40
4.0
 40
5.0
 40
5.0
 40
5.0
 40
6.0
 40
6.0
 40
6.0
 40
7.0
 40
7.0
 40
7.0
 40
8.0
 40
8.0
 40
8.0
 40
9.0
 40
9.0
 40
9.0
 40
10.0
 40
10.0
 40
10.0
 40
11.0
 40
11.0
 40
11.0
 40
11.0
 10
383.9534802642547
 20
422.0030096058708
 10
384.3686142702273
 20
421.5882201094467
 10
384.461631848329
 20
420.9023015983335
 10
384.461631848329
 20
420.2332640550979
 10
384.461631848329
 20
419.5643987666367
 10
384.3686142702273
 20
418.886748484688
 10
383.9534802642547
 20
418.4633462495509
 10
383.7333386627473
 20
418.2432046480434
 10
383.3695365795049
 20
418.0995441663085
 10
382.9375216056545
 20
418.0995441663085
 10
382.4803574347619
 20
418.0995441663085
 10
382.1075981032578
 20
418.2094427122879
 10
381.7606769878932
 20
418.6414576861383
 10
381.7606769878932
 20
418.6414576861383
 10
381.7606769878932
 20
416.2874239410671
 10
381.7606769878932
 20
416.2874239410671
 10
381.7606769878932
 20
416.2874239410671
 10
381.150895087004
 20
416.2874239410671
 10
381.150895087004
 20
416.2874239410671
 10
381.150895087004
 20
416.2874239410671
 10
381.150895087004
 20
422.31616878548
 10
381.150895087004
 20
422.31616878548
 10
381.150895087004
 20
422.31616878548
 10
381.7606769878932
 20
422.31616878548
 10
381.7606769878932
 20
422.31616878548
 10
381.7606769878932
 20
422.31616878548
 10
381.7606769878932
 20
421.8252426788319
 10
381.7606769878932
 20
421.8252426788319
 10
382.1075981032578
 20
422.2569131431337
 10
382.4717446960487
 20
422.3671561986617
 10
382.9375216056545
 20
422.3671561986617
 10
383.3695365795049
 20
422.3671561986617
 10
383.7333386627473
 20
422.2231512073782
 10
383.9534802642547
 20
422.0030096058708
 97
        0
 92
        1
 93
        1
 72
     4
 94
        3
 73
     0
 74
     1
 95
       17
 96
       13
 40
0.0
 40
0.0
 40
0.0
 40
0.0
 40
1.0
 40
1.0
 40
1.0
 40
2.0
 40
2.0
 40
2.0
 40
3.0
 40
3.0
 40
3.0
 40
4.0
 40
4.0
 40
4.0
 40
4.0
 10
381.7606769878932
 20
420.2332640550979
 10
381.7606769878932
 20
419.4203937753533
 10
381.8960692404635
 20
418.6414576861383
 10
382.8103975822488
 20
418.6414576861383
 10
383.7164576948695
 20
418.6414576861383
 10
383.8518499474399
 20
419.4203937753533
 10
383.8518499474399
 20
420.2332640550979
 10
383.8518499474399
 20
421.0463065896169
 10
383.7164576948695
 20
421.8252426788319
 10
382.8103975822488
 20
421.8252426788319
 10
381.8960692404635
 20
421.8252426788319
 10
381.7606769878932
 20
421.0463065896169
 10
381.7606769878932
 20
420.2332640550979
 97
        0
 75
     2
 76
     1
 98
        0
  0
SPLINE
  5
30D
330
2B1
100
AcDbEntity
  8
Layer 1
370
     0
100
AcDbSpline
210
0.0
220
0.0
230
1.0
 70
    11
 71
     3
 72
    53
 73
    49
 74
     0
 42
0.0000000001
 43
0.0000000001
 12
1.0
 22
0.0
 32
0.0
 13
1.0
 23
0.0
 33
0.0
 40
0.0
 40
0.0
 40
0.0
 40
0.0
 40
1.0
 40
1.0
 40
1.0
 40
2.0
 40
2.0
 40
2.0
 40
3.0
 40
3.0
 40
3.0
 40
4.0
 40
4.0
 40
4.0
 40
5.0
 40
5.0
 40
5.0
 40
6.0
 40
6.0
 40
6.0
 40
7.0
 40
7.0
 40
7.0
 40
8.0
 40
8.0
 40
8.0
 40
9.0
 40
9.0
 40
9.0
 40
10.0
 40
10.0
 40
10.0
 40
11.0
 40
11.0
 40
11.0
 40
12.0
 40
12.0
 40
12.0
 40
13.0
 40
13.0
 40
13.0
 40
14.0
 40
14.0
 40
14.0
 40
15.0
 40
15.0
 40
15.0
 40
16.0
 40
16.0
 40
16.0
 40
16.0
 10
388.5850666346246
 20
421.9182602569336
 30
0.0
 10
388.5850666346246
 20
421.9182602569336
 30
0.0
 10
388.1868135965297
 20
421.5203517283873
 30
0.0
 10
388.1868135965297
 20
421.5203517283873
 30
0.0
 10
387.8905353847982
 20
421.7491060686079
 30
0.0
 10
387.5095078241296
 20
421.8507363854227
 30
0.0
 10
387.0778373598278
 20
421.8507363854227
 30
0.0
 10
386.4680554589386
 20
421.8507363854227
 30
0.0
 10
386.1462835406163
 20
421.5964883386113
 30
0.0
 10
386.1462835406163
 20
421.1648178743095
 30
0.0
 10
386.1462835406163
 20
420.7920585428055
 30
0.0
 10
386.3750378808368
 20
420.606023386602
 30
0.0
 10
386.8914576940758
 20
420.5550359734203
 30
0.0
 10
386.8914576940758
 20
420.5550359734203
 30
0.0
 10
387.543269759885
 20
420.495780331074
 30
0.0
 10
387.543269759885
 20
420.495780331074
 30
0.0
 10
388.2715629454668
 20
420.4282564595631
 30
0.0
 10
388.7711017908281
 20
420.1569551900997
 30
0.0
 10
388.7711017908281
 20
419.3694063621716
 30
0.0
 10
388.7711017908281
 20
418.5649765663657
 30
0.0
 10
388.093796018428
 20
418.0995441663085
 30
0.0
 10
387.0778373598278
 20
418.0995441663085
 30
0.0
 10
386.3664251421237
 20
418.0995441663085
 30
0.0
 10
385.8162433931293
 20
418.2604301254696
 30
0.0
 10
385.3673474514013
 20
418.7007133284845
 30
0.0
 10
385.3673474514013
 20
418.7007133284845
 30
0.0
 10
385.7738687186607
 20
419.1068900861955
 30
0.0
 10
385.7738687186607
 20
419.1068900861955
 30
0.0
 10
386.095640636983
 20
418.7682371999954
 30
0.0
 10
386.5528048078757
 20
418.624232208712
 30
0.0
 10
387.0692246211146
 20
418.624232208712
 30
0.0
 10
387.7634113613925
 20
418.624232208712
 30
0.0
 10
388.1785453673651
 20
418.8698675168103
 30
0.0
 10
388.1785453673651
 20
419.3611381330069
 30
0.0
 10
388.1785453673651
 20
419.7335529549625
 30
0.0
 10
387.9752847337354
 20
419.9282008498791
 30
0.0
 10
387.4840141175387
 20
419.9705755243477
 30
0.0
 10
387.4840141175387
 20
419.9705755243477
 30
0.0
 10
386.798440115974
 20
420.029831166694
 30
0.0
 10
386.798440115974
 20
420.029831166694
 30
0.0
 10
385.9853975814551
 20
420.0976995477534
 30
0.0
 10
385.5537271171532
 20
420.4534056566054
 30
0.0
 10
385.5537271171532
 20
421.1479369064318
 30
0.0
 10
385.5537271171532
 20
421.909992027769
 30
0.0
 10
386.1886582150848
 20
422.3671561986617
 30
0.0
 10
387.0861055889924
 20
422.3671561986617
 30
0.0
 10
387.6872747511685
 20
422.3671561986617
 30
0.0
 10
388.2040390739559
 20
422.2231512073782
 30
0.0
 10
388.5850666346246
 20
421.9182602569336
 30
0.0
  0
HATCH
  5
30E
330
2B1
100
AcDbEntity
  8
Layer 1
 62
     7
100
AcDbHatch
 10
0.0
 20
0.0
 30
0.0
210
0.0
220
0.0
230
1.0
  2
SOLID
 70
     1
 71
     0
 91
        1
 92
        1
 93
        1
 72
     4
 94
        3
 73
     0
 74
     1
 95
       53
 96
       49
 40
0.0
 40
0.0
 40
0.0
 40
0.0
 40
1.0
 40
1.0
 40
1.0
 40
2.0
 40
2.0
 40
2.0
 40
3.0
 40
3.0
 40
3.0
 40
4.0
 40
4.0
 40
4.0
 40
5.0
 40
5.0
 40
5.0
 40
6.0
 40
6.0
 40
6.0
 40
7.0
 40
7.0
 40
7.0
 40
8.0
 40
8.0
 40
8.0
 40
9.0
 40
9.0
 40
9.0
 40
10.0
 40
10.0
 40
10.0
 40
11.0
 40
11.0
 40
11.0
 40
12.0
 40
12.0
 40
12.0
 40
13.0
 40
13.0
 40
13.0
 40
14.0
 40
14.0
 40
14.0
 40
15.0
 40
15.0
 40
15.0
 40
16.0
 40
16.0
 40
16.0
 40
16.0
 10
388.5850666346246
 20
421.9182602569336
 10
388.5850666346246
 20
421.9182602569336
 10
388.1868135965297
 20
421.5203517283873
 10
388.1868135965297
 20
421.5203517283873
 10
387.8905353847982
 20
421.7491060686079
 10
387.5095078241296
 20
421.8507363854227
 10
387.0778373598278
 20
421.8507363854227
 10
386.4680554589386
 20
421.8507363854227
 10
386.1462835406163
 20
421.5964883386113
 10
386.1462835406163
 20
421.1648178743095
 10
386.1462835406163
 20
420.7920585428055
 10
386.3750378808368
 20
420.606023386602
 10
386.8914576940758
 20
420.5550359734203
 10
386.8914576940758
 20
420.5550359734203
 10
387.543269759885
 20
420.495780331074
 10
387.543269759885
 20
420.495780331074
 10
388.2715629454668
 20
420.4282564595631
 10
388.7711017908281
 20
420.1569551900997
 10
388.7711017908281
 20
419.3694063621716
 10
388.7711017908281
 20
418.5649765663657
 10
388.093796018428
 20
418.0995441663085
 10
387.0778373598278
 20
418.0995441663085
 10
386.3664251421237
 20
418.0995441663085
 10
385.8162433931293
 20
418.2604301254696
 10
385.3673474514013
 20
418.7007133284845
 10
385.3673474514013
 20
418.7007133284845
 10
385.7738687186607
 20
419.1068900861955
 10
385.7738687186607
 20
419.1068900861955
 10
386.095640636983
 20
418.7682371999954
 10
386.5528048078757
 20
418.624232208712
 10
387.0692246211146
 20
418.624232208712
 10
387.7634113613925
 20
418.624232208712
 10
388.1785453673651
 20
418.8698675168103
 10
388.1785453673651
 20
419.3611381330069
 10
388.1785453673651
 20
419.7335529549625
 10
387.9752847337354
 20
419.9282008498791
 10
387.4840141175387
 20
419.9705755243477
 10
387.4840141175387
 20
419.9705755243477
 10
386.798440115974
 20
420.029831166694
 10
386.798440115974
 20
420.029831166694
 10
385.9853975814551
 20
420.0976995477534
 10
385.5537271171532
 20
420.4534056566054
 10
385.5537271171532
 20
421.1479369064318
 10
385.5537271171532
 20
421.909992027769
 10
386.1886582150848
 20
422.3671561986617
 10
387.0861055889924
 20
422.3671561986617
 10
387.6872747511685
 20
422.3671561986617
 10
388.2040390739559
 20
422.2231512073782
 10
388.5850666346246
 20
421.9182602569336
 97
        0
 75
     2
 76
     1
 98
        0
  0
ENDBLK
  5
2B4
330
2B1
100
AcDbEntity
  8
0
100
AcDbBlockEnd
  0
ENDSEC
  0
SECTION
  2
ENTITIES
  0
INSERT
  5
42
330
1F
100
AcDbEntity
  8
Layer 1
100
AcDbBlockReference
  2
block 2
 10
0.0
 20
0.0
 30
0.0
  0
INSERT
  5
84
330
1F
100
AcDbEntity
  8
Layer 1
100
AcDbBlockReference
  2
block 3
 10
0.0
 20
0.0
 30
0.0
  0
INSERT
  5
C3
330
1F
100
AcDbEntity
  8
Layer 1
100
AcDbBlockReference
  2
block 4
 10
0.0
 20
0.0
 30
0.0
  0
INSERT
  5
EC
330
1F
100
AcDbEntity
  8
Layer 1
100
AcDbBlockReference
  2
block 5
 10
0.0
 20
0.0
 30
0.0
  0
INSERT
  5
F7
330
1F
100
AcDbEntity
  8
Layer 1
100
AcDbBlockReference
  2
block 6
 10
0.0
 20
0.0
 30
0.0
  0
POLYLINE
  5
199
330
1F
100
AcDbEntity
  8
Layer 1
 62
    40
370
    13
100
AcDb2dPolyline
 66
     1
 10
0.0
 20
0.0
 30
0.0
  0
VERTEX
  5
19A
330
199
100
AcDbEntity
  8
Layer 1
 62
    40
370
    13
100
AcDbVertex
100
AcDb2dVertex
 10
69.01791475773446
 20
648.1935163165474
 30
0.0
  0
VERTEX
  5
19B
330
199
100
AcDbEntity
  8
Layer 1
 62
    40
370
    13
100
AcDbVertex
100
AcDb2dVertex
 10
19.01801666503695
 20
648.1935163165474
 30
0.0
  0
VERTEX
  5
19C
330
199
100
AcDbEntity
  8
Layer 1
 62
    40
370
    13
100
AcDbVertex
100
AcDb2dVertex
 10
19.01801666503695
 20
652.6935861667679
 30
0.0
  0
VERTEX
  5
19D
330
199
100
AcDbEntity
  8
Layer 1
 62
    40
370
    13
100
AcDbVertex
100
AcDb2dVertex
 10
69.01791475773446
 20
652.6935861667679
 30
0.0
  0
VERTEX
  5
19E
330
199
100
AcDbEntity
  8
Layer 1
 62
    40
370
    13
100
AcDbVertex
100
AcDb2dVertex
 10
69.01791475773446
 20
648.1935163165474
 30
0.0
  0
SEQEND
  5
19F
330
199
100
AcDbEntity
  8
Layer 1
 62
    40
370
    13
  0
POLYLINE
  5
1A0
330
1F
100
AcDbEntity
  8
Layer 1
 62
    40
370
    13
100
AcDb2dPolyline
 66
     1
 10
0.0
 20
0.0
 30
0.0
  0
VERTEX
  5
1A1
330
1A0
100
AcDbEntity
  8
Layer 1
 62
    40
370
    13
100
AcDbVertex
100
AcDb2dVertex
 10
128.7696508539076
 20
289.4454096828729
 30
0.0
  0
VERTEX
  5
1A2
330
1A0
100
AcDbEntity
  8
Layer 1
 62
    40
370
    13
100
AcDbVertex
100
AcDb2dVertex
 10
124.269602535534
 20
289.4454096828729
 30
0.0
  0
VERTEX
  5
1A3
330
1A0
100
AcDbEntity
  8
Layer 1
 62
    40
370
    13
100
AcDbVertex
100
AcDb2dVertex
 10
124.269602535534
 20
604.4452822780053
 30
0.0
  0
VERTEX
  5
1A4
330
1A0
100
AcDbEntity
  8
Layer 1
 62
    40
370
    13
100
AcDbVertex
100
AcDb2dVertex
 10
128.7696508539076
 20
604.4452822780053
 30
0.0
  0
VERTEX
  5
1A5
330
1A0
100
AcDbEntity
  8
Layer 1
 62
    40
370
    13
100
AcDbVertex
100
AcDb2dVertex
 10
128.7696508539076
 20
289.4454096828729
 30
0.0
  0
SEQEND
  5
1A6
330
1A0
100
AcDbEntity
  8
Layer 1
 62
    40
370
    13
  0
INSERT
  5
1A8
330
1F
100
AcDbEntity
  8
Layer 1
100
AcDbBlockReference
  2
block 7
 10
0.0
 20
0.0
 30
0.0
  0
INSERT
  5
2A0
330
1F
100
AcDbEntity
  8
Layer 1
100
AcDbBlockReference
  2
block 8
 10
0.0
 20
0.0
 30
0.0
  0
ENDSEC
  0
SECTION
  2
OBJECTS
  0
DICTIONARY
  5
C
330
0
100
AcDbDictionary
281
     1
  3
ACAD_GROUP
350
D
  3
ACAD_LAYOUT
350
1A
  3
ACAD_MATERIAL
350
3B
  3
ACAD_MLEADERSTYLE
350
311
  3
ACAD_MLINESTYLE
350
17
  3
ACAD_PLOTSETTINGS
350
19
  3
ACAD_PLOTSTYLENAME
350
E
  3
ACAD_VISUALSTYLE
350
2A
  3
AcDbVariableDictionary
350
30F
  0
DICTIONARY
  5
D
102
{ACAD_REACTORS
330
C
102
}
330
C
100
AcDbDictionary
281
     1
  0
DICTIONARY
  5
1A
102
{ACAD_REACTORS
330
C
102
}
330
C
100
AcDbDictionary
281
     1
  3
Layout1
350
1E
  3
Layout2
350
26
  3
Model
350
22
  0
DICTIONARY
  5
3B
102
{ACAD_REACTORS
330
C
102
}
330
C
100
AcDbDictionary
281
     1
  3
ByBlock
350
3D
  3
ByLayer
350
3C
  3
Global
350
3E
  0
DICTIONARY
  5
311
102
{ACAD_REACTORS
330
C
102
}
330
C
100
AcDbDictionary
281
     1
  0
DICTIONARY
  5
17
102
{ACAD_REACTORS
330
C
102
}
330
C
100
AcDbDictionary
281
     1
  3
Standard
350
18
  0
DICTIONARY
  5
19
102
{ACAD_REACTORS
330
C
102
}
330
C
100
AcDbDictionary
281
     1
  0
ACDBDICTIONARYWDFLT
  5
E
102
{ACAD_REACTORS
330
C
102
}
330
C
100
AcDbDictionary
281
     1
  3
Normal
350
F
100
AcDbDictionaryWithDefault
340
F
  0
DICTIONARY
  5
2A
102
{ACAD_REACTORS
330
C
102
}
330
C
100
AcDbDictionary
281
     1
  3
2dWireframe
350
2F
  3
3D Hidden
350
31
  3
3dWireframe
350
30
  3
Basic
350
32
  3
Brighten
350
36
  3
ColorChange
350
3A
  3
Conceptual
350
34
  3
Dim
350
35
  3
Facepattern
350
39
  3
Flat
350
2B
  3
FlatWithEdges
350
2C
  3
Gouraud
350
2D
  3
GouraudWithEdges
350
2E
  3
Linepattern
350
38
  3
Realistic
350
33
  3
Thicken
350
37
  0
DICTIONARY
  5
30F
102
{ACAD_REACTORS
330
C
102
}
330
C
100
AcDbDictionary
281
     1
  3
DIMASSOC
350
312
  3
HIDETEXT
350
313
  0
LAYOUT
  5
1E
102
{ACAD_REACTORS
330
1A
102
}
330
1A
100
AcDbPlotSettings
  1

  2
none_device
  4

  6

 40
0.0
 41
0.0
 42
0.0
 43
0.0
 44
0.0
 45
0.0
 46
0.0
 47
0.0
 48
0.0
 49
0.0
140
0.0
141
0.0
142
1.0
143
1.0
 70
   688
 72
     0
 73
     0
 74
     5
  7

 75
    16
147
1.0
148
0.0
149
0.0
100
AcDbLayout
  1
Layout1
 70
     1
 71
     1
 10
0.0
 20
0.0
 11
12.0
 21
9.0
 12
0.0
 22
0.0
 32
0.0
 14
1.000000000000000E+20
 24
1.000000000000000E+20
 34
1.000000000000000E+20
 15
-1.000000000000000E+20
 25
-1.000000000000000E+20
 35
-1.000000000000000E+20
146
0.0
 13
0.0
 23
0.0
 33
0.0
 16
1.0
 26
0.0
 36
0.0
 17
0.0
 27
1.0
 37
0.0
 76
     0
330
1B
  0
LAYOUT
  5
26
102
{ACAD_REACTORS
330
1A
102
}
330
1A
100
AcDbPlotSettings
  1

  2
none_device
  4

  6

 40
0.0
 41
0.0
 42
0.0
 43
0.0
 44
0.0
 45
0.0
 46
0.0
 47
0.0
 48
0.0
 49
0.0
140
0.0
141
0.0
142
1.0
143
1.0
 70
   688
 72
     0
 73
     0
 74
     5
  7

 75
    16
147
1.0
148
0.0
149
0.0
100
AcDbLayout
  1
Layout2
 70
     1
 71
     2
 10
0.0
 20
0.0
 11
0.0
 21
0.0
 12
0.0
 22
0.0
 32
0.0
 14
0.0
 24
0.0
 34
0.0
 15
0.0
 25
0.0
 35
0.0
146
0.0
 13
0.0
 23
0.0
 33
0.0
 16
1.0
 26
0.0
 36
0.0
 17
0.0
 27
1.0
 37
0.0
 76
     0
330
23
  0
LAYOUT
  5
22
102
{ACAD_REACTORS
330
1A
102
}
330
1A
100
AcDbPlotSettings
  1

  2
none_device
  4

  6

 40
0.0
 41
0.0
 42
0.0
 43
0.0
 44
0.0
 45
0.0
 46
0.0
 47
0.0
 48
0.0
 49
0.0
140
0.0
141
0.0
142
1.0
143
1.0
 70
  1712
 72
     0
 73
     0
 74
     0
  7

 75
     0
147
1.0
148
0.0
149
0.0
100
AcDbLayout
  1
Model
 70
     1
 71
     0
 10
0.0
 20
0.0
 11
12.0
 21
9.0
 12
0.0
 22
0.0
 32
0.0
 14
1.000000000000000E+20
 24
1.000000000000000E+20
 34
1.000000000000000E+20
 15
-1.000000000000000E+20
 25
-1.000000000000000E+20
 35
-1.000000000000000E+20
146
0.0
 13
0.0
 23
0.0
 33
0.0
 16
1.0
 26
0.0
 36
0.0
 17
0.0
 27
1.0
 37
0.0
 76
     0
330
1F
331
29
  0
MATERIAL
  5
3D
102
{ACAD_REACTORS
330
3B
102
}
102
{ACAD_XDICTIONARY
360
336
102
}
330
3B
100
AcDbMaterial
  1
ByBlock
  0
MATERIAL
  5
3C
102
{ACAD_REACTORS
330
3B
102
}
102
{ACAD_XDICTIONARY
360
334
102
}
330
3B
100
AcDbMaterial
  1
ByLayer
  0
MATERIAL
  5
3E
102
{ACAD_REACTORS
330
3B
102
}
102
{ACAD_XDICTIONARY
360
338
102
}
330
3B
100
AcDbMaterial
  1
Global
  0
MLINESTYLE
  5
18
102
{ACAD_REACTORS
330
17
102
}
330
17
100
AcDbMlineStyle
  2
Standard
 70
     0
  3

 62
   256
 51
90.0
 52
90.0
 71
     2
 49
0.5
 62
   256
  6
BYLAYER
 49
-0.5
 62
   256
  6
BYLAYER
  0
ACDBPLACEHOLDER
  5
F
102
{ACAD_REACTORS
330
E
102
}
330
E
  0
VISUALSTYLE
  5
2F
102
{ACAD_REACTORS
330
2A
102
}
102
{ACAD_XDICTIONARY
360
31C
102
}
330
2A
100
AcDbVisualStyle
  2
2dWireframe
 70
     4
 71
     0
 72
     2
 73
     0
 90
        0
 40
-0.6
 41
-30.0
 62
     5
 63
     7
 74
     1
 91
        4
 64
     7
 65
   257
 75
     1
175
     1
 42
1.0
 92
        0
 66
   257
 43
1.0
 76
     1
 77
     6
 78
     2
 67
     7
 79
     5
170
     0
171
     0
290
     0
174
     0
 93
        1
 44
0.0
173
     0
291
     0
 45
0.0
1001
ACAD
1000
AcDbSavedByObjectVersion
1070
     0
  0
VISUALSTYLE
  5
31
102
{ACAD_REACTORS
330
2A
102
}
102
{ACAD_XDICTIONARY
360
320
102
}
330
2A
100
AcDbVisualStyle
  2
3D Hidden
 70
     6
 71
     1
 72
     2
 73
     2
 90
        0
 40
-0.6
 41
-30.0
 62
     5
 63
     7
 74
     2
 91
        2
 64
     7
 65
   257
 75
     2
175
     1
 42
40.0
 92
        0
 66
   257
 43
1.0
 76
     1
 77
     6
 78
     2
 67
     7
 79
     3
170
     0
171
     0
290
     0
174
     0
 93
        1
 44
0.0
173
     0
291
     0
 45
0.0
1001
ACAD
1000
AcDbSavedByObjectVersion
1070
     0
  0
VISUALSTYLE
  5
30
102
{ACAD_REACTORS
330
2A
102
}
102
{ACAD_XDICTIONARY
360
31E
102
}
330
2A
100
AcDbVisualStyle
  2
3dWireframe
 70
     5
 71
     0
 72
     2
 73
     0
 90
        0
 40
-0.6
 41
-30.0
 62
     5
 63
     7
 74
     1
 91
        4
 64
     7
 65
   257
 75
     1
175
     1
 42
1.0
 92
        0
 66
   257
 43
1.0
 76
     1
 77
     6
 78
     2
 67
     7
 79
     5
170
     0
171
     0
290
     0
174
     0
 93
        1
 44
0.0
173
     0
291
     0
 45
0.0
1001
ACAD
1000
AcDbSavedByObjectVersion
1070
     0
  0
VISUALSTYLE
  5
32
102
{ACAD_REACTORS
330
2A
102
}
102
{ACAD_XDICTIONARY
360
322
102
}
330
2A
100
AcDbVisualStyle
  2
Basic
 70
     7
 71
     1
 72
     0
 73
     1
 90
        0
 40
-0.6
 41
-30.0
 62
     5
 63
     7
 74
     0
 91
        4
 64
     7
 65
   257
 75
     1
175
     1
 42
1.0
 92
        8
 66
     7
 43
1.0
 76
     1
 77
     6
 78
     2
 67
     7
 79
     5
170
     0
171
     0
290
     0
174
     0
 93
        1
 44
0.0
173
     0
291
     1
 45
0.0
1001
ACAD
1000
AcDbSavedByObjectVersion
1070
     0
  0
VISUALSTYLE
  5
36
102
{ACAD_REACTORS
330
2A
102
}
102
{ACAD_XDICTIONARY
360
32A
102
}
330
2A
100
AcDbVisualStyle
  2
Brighten
 70
    12
 71
     2
 72
     2
 73
     0
 90
        0
 40
-0.6
 41
-30.0
 62
     5
 63
     7
 74
     1
 91
        4
 64
     7
 65
   257
 75
     1
175
     1
 42
1.0
 92
        8
 66
     7
 43
1.0
 76
     1
 77
     6
 78
     2
 67
     7
 79
     5
170
     0
171
     0
290
     0
174
     0
 93
        1
 44
50.0
173
     0
291
     1
 45
0.0
1001
ACAD
1000
AcDbSavedByObjectVersion
1070
     0
  0
VISUALSTYLE
  5
3A
102
{ACAD_REACTORS
330
2A
102
}
102
{ACAD_XDICTIONARY
360
332
102
}
330
2A
100
AcDbVisualStyle
  2
ColorChange
 70
    16
 71
     2
 72
     2
 73
     3
 90
        0
 40
-0.6
 41
-30.0
 62
     5
 63
     8
 74
     1
 91
        4
 64
     7
 65
   257
 75
     1
175
     1
 42
1.0
 92
        8
 66
     8
 43
1.0
 76
     1
 77
     6
 78
     2
 67
     7
 79
     5
170
     0
171
     0
290
     0
174
     0
 93
        1
 44
0.0
173
     0
291
     1
 45
0.0
1001
ACAD
1000
AcDbSavedByObjectVersion
1070
     0
  0
VISUALSTYLE
  5
34
102
{ACAD_REACTORS
330
2A
102
}
102
{ACAD_XDICTIONARY
360
326
102
}
330
2A
100
AcDbVisualStyle
  2
Conceptual
 70
     9
 71
     3
 72
     2
 73
     0
 90
        0
 40
-0.6
 41
-30.0
 62
     5
 63
     7
 74
     2
 91
        2
 64
     7
 65
   257
 75
     1
175
     1
 42
40.0
 92
        8
 66
     7
 43
1.0
 76
     1
 77
     6
 78
     2
 67
     7
 79
     3
170
     0
171
     0
290
     0
174
     0
 93
        1
 44
0.0
173
     0
291
     0
 45
0.0
1001
ACAD
1000
AcDbSavedByObjectVersion
1070
     0
  0
VISUALSTYLE
  5
35
102
{ACAD_REACTORS
330
2A
102
}
102
{ACAD_XDICTIONARY
360
328
102
}
330
2A
100
AcDbVisualStyle
  2
Dim
 70
    11
 71
     2
 72
     2
 73
     0
 90
        0
 40
-0.6
 41
-30.0
 62
     5
 63
     7
 74
     1
 91
        4
 64
     7
 65
   257
 75
     1
175
     1
 42
1.0
 92
        8
 66
     7
 43
1.0
 76
     1
 77
     6
 78
     2
 67
     7
 79
     5
170
     0
171
     0
290
     0
174
     0
 93
        1
 44
-50.0
173
     0
291
     1
 45
0.0
1001
ACAD
1000
AcDbSavedByObjectVersion
1070
     0
  0
VISUALSTYLE
  5
39
102
{ACAD_REACTORS
330
2A
102
}
102
{ACAD_XDICTIONARY
360
330
102
}
330
2A
100
AcDbVisualStyle
  2
Facepattern
 70
    15
 71
     2
 72
     2
 73
     0
 90
        0
 40
-0.6
 41
-30.0
 62
     5
 63
     7
 74
     1
 91
        4
 64
     7
 65
   257
 75
     1
175
     1
 42
1.0
 92
        8
 66
     7
 43
1.0
 76
     1
 77
     6
 78
     2
 67
     7
 79
     5
170
     0
171
     0
290
     0
174
     0
 93
        1
 44
0.0
173
     0
291
     1
 45
0.0
1001
ACAD
1000
AcDbSavedByObjectVersion
1070
     0
  0
VISUALSTYLE
  5
2B
102
{ACAD_REACTORS
330
2A
102
}
102
{ACAD_XDICTIONARY
360
314
102
}
330
2A
100
AcDbVisualStyle
  2
Flat
 70
     0
 71
     2
 72
     1
 73
     1
 90
        2
 40
-0.6
 41
30.0
 62
     5
 63
     7
 74
     0
 91
        4
 64
     7
 65
   257
 75
     1
175
     1
 42
1.0
 92
        8
 66
     7
 43
1.0
 76
     1
 77
     6
 78
     2
 67
     7
 79
     5
170
     0
171
     0
290
     0
174
     0
 93
       13
 44
0.0
173
     0
291
     1
 45
0.0
1001
ACAD
1000
AcDbSavedByObjectVersion
1070
     0
  0
VISUALSTYLE
  5
2C
102
{ACAD_REACTORS
330
2A
102
}
102
{ACAD_XDICTIONARY
360
316
102
}
330
2A
100
AcDbVisualStyle
  2
FlatWithEdges
 70
     1
 71
     2
 72
     1
 73
     1
 90
        2
 40
-0.6
 41
30.0
 62
     5
 63
     7
 74
     1
 91
        4
 64
     7
 65
   257
 75
     1
175
     1
 42
1.0
 92
        0
 66
   257
 43
1.0
 76
     1
 77
     6
 78
     2
 67
     7
 79
     5
170
     0
171
     0
290
     0
174
     0
 93
       13
 44
0.0
173
     0
291
     1
 45
0.0
1001
ACAD
1000
AcDbSavedByObjectVersion
1070
     0
  0
VISUALSTYLE
  5
2D
102
{ACAD_REACTORS
330
2A
102
}
102
{ACAD_XDICTIONARY
360
318
102
}
330
2A
100
AcDbVisualStyle
  2
Gouraud
 70
     2
 71
     2
 72
     2
 73
     1
 90
        2
 40
-0.6
 41
30.0
 62
     5
 63
     7
 74
     0
 91
        4
 64
     7
 65
   257
 75
     1
175
     1
 42
1.0
 92
        0
 66
     7
 43
1.0
 76
     1
 77
     6
 78
     2
 67
     7
 79
     5
170
     0
171
     0
290
     0
174
     0
 93
       13
 44
0.0
173
     0
291
     1
 45
0.0
1001
ACAD
1000
AcDbSavedByObjectVersion
1070
     0
  0
VISUALSTYLE
  5
2E
102
{ACAD_REACTORS
330
2A
102
}
102
{ACAD_XDICTIONARY
360
31A
102
}
330
2A
100
AcDbVisualStyle
  2
GouraudWithEdges
 70
     3
 71
     2
 72
     2
 73
     1
 90
        2
 40
-0.6
 41
30.0
 62
     5
 63
     7
 74
     1
 91
        4
 64
     7
 65
   257
 75
     1
175
     1
 42
1.0
 92
        0
 66
   257
 43
1.0
 76
     1
 77
     6
 78
     2
 67
     7
 79
     5
170
     0
171
     0
290
     0
174
     0
 93
       13
 44
0.0
173
     0
291
     1
 45
0.0
1001
ACAD
1000
AcDbSavedByObjectVersion
1070
     0
  0
VISUALSTYLE
  5
38
102
{ACAD_REACTORS
330
2A
102
}
102
{ACAD_XDICTIONARY
360
32E
102
}
330
2A
100
AcDbVisualStyle
  2
Linepattern
 70
    14
 71
     2
 72
     2
 73
     0
 90
        0
 40
-0.6
 41
-30.0
 62
     5
 63
     7
 74
     1
 91
        4
 64
     7
 65
   257
 75
     7
175
     7
 42
1.0
 92
        8
 66
     7
 43
1.0
 76
     1
 77
     6
 78
     2
 67
     7
 79
     5
170
     0
171
     0
290
     0
174
     0
 93
        1
 44
0.0
173
     0
291
     1
 45
0.0
1001
ACAD
1000
AcDbSavedByObjectVersion
1070
     0
  0
VISUALSTYLE
  5
33
102
{ACAD_REACTORS
330
2A
102
}
102
{ACAD_XDICTIONARY
360
324
102
}
330
2A
100
AcDbVisualStyle
  2
Realistic
 70
     8
 71
     2
 72
     2
 73
     0
 90
        0
 40
-0.6
 41
-30.0
 62
     5
 63
     7
 74
     1
 91
        0
 64
     7
 65
   257
 75
     1
175
     1
 42
1.0
 92
        8
 66
     8
 43
1.0
 76
     1
 77
     6
 78
     2
 67
     7
 79
     5
170
     0
171
     0
290
     0
174
     0
 93
       13
 44
0.0
173
     0
291
     0
 45
0.0
1001
ACAD
1000
AcDbSavedByObjectVersion
1070
     0
  0
VISUALSTYLE
  5
37
102
{ACAD_REACTORS
330
2A
102
}
102
{ACAD_XDICTIONARY
360
32C
102
}
330
2A
100
AcDbVisualStyle
  2
Thicken
 70
    13
 71
     2
 72
     2
 73
     0
 90
        0
 40
-0.6
 41
-30.0
 62
     5
 63
     7
 74
     1
 91
        4
 64
     7
 65
   257
 75
     1
175
     1
 42
1.0
 92
       12
 66
     7
 43
1.0
 76
     1
 77
     6
 78
     2
 67
     7
 79
     5
170
     0
171
     0
290
     0
174
     0
 93
        1
 44
0.0
173
     0
291
     1
 45
0.0
1001
ACAD
1000
AcDbSavedByObjectVersion
1070
     0
  0
DICTIONARYVAR
  5
312
102
{ACAD_REACTORS
330
30F
102
}
330
30F
100
DictionaryVariables
280
     0
  1
2
  0
DICTIONARYVAR
  5
313
102
{ACAD_REACTORS
330
30F
102
}
330
30F
100
DictionaryVariables
280
     0
  1
1
  0
DICTIONARY
  5
336
330
3D
100
AcDbDictionary
280
     1
281
     1
  3
ACAD_XREC_ROUNDTRIP
360
337
  0
DICTIONARY
  5
334
330
3C
100
AcDbDictionary
280
     1
281
     1
  3
ACAD_XREC_ROUNDTRIP
360
335
  0
DICTIONARY
  5
338
330
3E
100
AcDbDictionary
280
     1
281
     1
  3
ACAD_XREC_ROUNDTRIP
360
339
  0
DICTIONARY
  5
31C
330
2F
100
AcDbDictionary
280
     1
281
     1
  3
ACAD_XREC_ROUNDTRIP
360
31D
  0
DICTIONARY
  5
320
330
31
100
AcDbDictionary
280
     1
281
     1
  3
ACAD_XREC_ROUNDTRIP
360
321
  0
DICTIONARY
  5
31E
330
30
100
AcDbDictionary
280
     1
281
     1
  3
ACAD_XREC_ROUNDTRIP
360
31F
  0
DICTIONARY
  5
322
330
32
100
AcDbDictionary
280
     1
281
     1
  3
ACAD_XREC_ROUNDTRIP
360
323
  0
DICTIONARY
  5
32A
330
36
100
AcDbDictionary
280
     1
281
     1
  3
ACAD_XREC_ROUNDTRIP
360
32B
  0
DICTIONARY
  5
332
330
3A
100
AcDbDictionary
280
     1
281
     1
  3
ACAD_XREC_ROUNDTRIP
360
333
  0
DICTIONARY
  5
326
330
34
100
AcDbDictionary
280
     1
281
     1
  3
ACAD_XREC_ROUNDTRIP
360
327
  0
DICTIONARY
  5
328
330
35
100
AcDbDictionary
280
     1
281
     1
  3
ACAD_XREC_ROUNDTRIP
360
329
  0
DICTIONARY
  5
330
330
39
100
AcDbDictionary
280
     1
281
     1
  3
ACAD_XREC_ROUNDTRIP
360
331
  0
DICTIONARY
  5
314
330
2B
100
AcDbDictionary
280
     1
281
     1
  3
ACAD_XREC_ROUNDTRIP
360
315
  0
DICTIONARY
  5
316
330
2C
100
AcDbDictionary
280
     1
281
     1
  3
ACAD_XREC_ROUNDTRIP
360
317
  0
DICTIONARY
  5
318
330
2D
100
AcDbDictionary
280
     1
281
     1
  3
ACAD_XREC_ROUNDTRIP
360
319
  0
DICTIONARY
  5
31A
330
2E
100
AcDbDictionary
280
     1
281
     1
  3
ACAD_XREC_ROUNDTRIP
360
31B
  0
DICTIONARY
  5
32E
330
38
100
AcDbDictionary
280
     1
281
     1
  3
ACAD_XREC_ROUNDTRIP
360
32F
  0
DICTIONARY
  5
324
330
33
100
AcDbDictionary
280
     1
281
     1
  3
ACAD_XREC_ROUNDTRIP
360
325
  0
DICTIONARY
  5
32C
330
37
100
AcDbDictionary
280
     1
281
     1
  3
ACAD_XREC_ROUNDTRIP
360
32D
  0
XRECORD
  5
337
102
{ACAD_REACTORS
330
336
102
}
330
336
100
AcDbXrecord
280
     1
102
MATERIAL
148
0.0
149
0.0
149
0.0
 93
        0
 94
      127
282
     0
 72
     1
 77
     1
171
     1
175
     1
179
     1
273
     0
  0
XRECORD
  5
335
102
{ACAD_REACTORS
330
334
102
}
330
334
100
AcDbXrecord
280
     1
102
MATERIAL
148
0.0
149
0.0
149
0.0
 93
        0
 94
      127
282
     0
 72
     1
 77
     1
171
     1
175
     1
179
     1
273
     0
  0
XRECORD
  5
339
102
{ACAD_REACTORS
330
338
102
}
330
338
100
AcDbXrecord
280
     1
102
MATERIAL
148
0.0
149
0.0
149
0.0
 93
        0
 94
      127
282
     0
 72
     1
 77
     1
171
     1
175
     1
179
     1
273
     0
  0
XRECORD
  5
31D
102
{ACAD_REACTORS
330
31C
102
}
330
31C
100
AcDbXrecord
280
     1
102
RTVSPropertyOp0
 70
     1
102
RTVSPropertyOp1
 70
     1
102
RTVSPropertyOp2
 70
     1
102
RTVSPropertyOp3
 70
     1
102
RTVSPropertyOp4
 70
     1
102
RTVSPropertyOp5
 70
     1
102
RTVSPropertyOp6
 70
     1
102
RTVSPropertyOp7
 70
     1
102
RTVSPropertyOp8
 70
     1
102
RTVSPropertyOp9
 70
     1
102
RTVSPropertyOp10
 70
     1
102
RTVSPropertyOp11
 70
     1
102
RTVSPropertyOp12
 70
     1
102
RTVSPropertyOp13
 70
     1
102
RTVSPropertyOp14
 70
     1
102
RTVSPropertyOp15
 70
     1
102
RTVSPropertyOp16
 70
     1
102
RTVSPropertyOp17
 70
     1
102
RTVSPropertyOp18
 70
     1
102
RTVSPropertyOp19
 70
     1
102
RTVSPropertyOp20
 70
     1
102
RTVSPropertyOp21
 70
     1
102
RTVSPropertyOp22
 70
     1
102
RTVSPropertyOp23
 70
     1
102
RTVSPropertyOp24
 70
     1
102
RTVSPropertyOp25
 70
     1
102
RTVSPropertyOp26
 70
     1
102
RTVSPropertyOp27
 70
     1
102
RTVSPropertyOp28
 70
     1
102
RTVSPropertyOp29
 70
     1
102
RTVSPropertyOp30
 70
     1
102
RTVSPropertyOp31
 70
     1
102
RTVSPropertyOp32
 70
     1
  0
XRECORD
  5
321
102
{ACAD_REACTORS
330
320
102
}
330
320
100
AcDbXrecord
280
     1
102
RTVSPropertyOp0
 70
     1
102
RTVSPropertyOp1
 70
     1
102
RTVSPropertyOp2
 70
     1
102
RTVSPropertyOp3
 70
     1
102
RTVSPropertyOp4
 70
     1
102
RTVSPropertyOp5
 70
     1
102
RTVSPropertyOp6
 70
     1
102
RTVSPropertyOp7
 70
     1
102
RTVSPropertyOp8
 70
     1
102
RTVSPropertyOp9
 70
     1
102
RTVSPropertyOp10
 70
     1
102
RTVSPropertyOp11
 70
     1
102
RTVSPropertyOp12
 70
     1
102
RTVSPropertyOp13
 70
     1
102
RTVSPropertyOp14
 70
     1
102
RTVSPropertyOp15
 70
     1
102
RTVSPropertyOp16
 70
     1
102
RTVSPropertyOp17
 70
     1
102
RTVSPropertyOp18
 70
     1
102
RTVSPropertyOp19
 70
     1
102
RTVSPropertyOp20
 70
     1
102
RTVSPropertyOp21
 70
     1
102
RTVSPropertyOp22
 70
     1
102
RTVSPropertyOp23
 70
     1
102
RTVSPropertyOp24
 70
     1
102
RTVSPropertyOp25
 70
     1
102
RTVSPropertyOp26
 70
     1
102
RTVSPropertyOp27
 70
     1
102
RTVSPropertyOp28
 70
     1
102
RTVSPropertyOp29
 70
     1
102
RTVSPropertyOp30
 70
     1
102
RTVSPropertyOp31
 70
     1
102
RTVSPropertyOp32
 70
     1
  0
XRECORD
  5
31F
102
{ACAD_REACTORS
330
31E
102
}
330
31E
100
AcDbXrecord
280
     1
102
RTVSPropertyOp0
 70
     1
102
RTVSPropertyOp1
 70
     1
102
RTVSPropertyOp2
 70
     1
102
RTVSPropertyOp3
 70
     1
102
RTVSPropertyOp4
 70
     1
102
RTVSPropertyOp5
 70
     1
102
RTVSPropertyOp6
 70
     1
102
RTVSPropertyOp7
 70
     1
102
RTVSPropertyOp8
 70
     1
102
RTVSPropertyOp9
 70
     1
102
RTVSPropertyOp10
 70
     1
102
RTVSPropertyOp11
 70
     1
102
RTVSPropertyOp12
 70
     1
102
RTVSPropertyOp13
 70
     1
102
RTVSPropertyOp14
 70
     1
102
RTVSPropertyOp15
 70
     1
102
RTVSPropertyOp16
 70
     1
102
RTVSPropertyOp17
 70
     1
102
RTVSPropertyOp18
 70
     1
102
RTVSPropertyOp19
 70
     1
102
RTVSPropertyOp20
 70
     1
102
RTVSPropertyOp21
 70
     1
102
RTVSPropertyOp22
 70
     1
102
RTVSPropertyOp23
 70
     1
102
RTVSPropertyOp24
 70
     1
102
RTVSPropertyOp25
 70
     1
102
RTVSPropertyOp26
 70
     1
102
RTVSPropertyOp27
 70
     1
102
RTVSPropertyOp28
 70
     1
102
RTVSPropertyOp29
 70
     1
102
RTVSPropertyOp30
 70
     1
102
RTVSPropertyOp31
 70
     1
102
RTVSPropertyOp32
 70
     1
  0
XRECORD
  5
323
102
{ACAD_REACTORS
330
322
102
}
330
322
100
AcDbXrecord
280
     1
102
RTVSPropertyOp0
 70
     1
102
RTVSPropertyOp1
 70
     1
102
RTVSPropertyOp2
 70
     1
102
RTVSPropertyOp3
 70
     1
102
RTVSPropertyOp4
 70
     1
102
RTVSPropertyOp5
 70
     1
102
RTVSPropertyOp6
 70
     1
102
RTVSPropertyOp7
 70
     1
102
RTVSPropertyOp8
 70
     1
102
RTVSPropertyOp9
 70
     1
102
RTVSPropertyOp10
 70
     1
102
RTVSPropertyOp11
 70
     1
102
RTVSPropertyOp12
 70
     1
102
RTVSPropertyOp13
 70
     1
102
RTVSPropertyOp14
 70
     1
102
RTVSPropertyOp15
 70
     1
102
RTVSPropertyOp16
 70
     1
102
RTVSPropertyOp17
 70
     1
102
RTVSPropertyOp18
 70
     1
102
RTVSPropertyOp19
 70
     1
102
RTVSPropertyOp20
 70
     1
102
RTVSPropertyOp21
 70
     1
102
RTVSPropertyOp22
 70
     1
102
RTVSPropertyOp23
 70
     1
102
RTVSPropertyOp24
 70
     1
102
RTVSPropertyOp25
 70
     1
102
RTVSPropertyOp26
 70
     1
102
RTVSPropertyOp27
 70
     1
102
RTVSPropertyOp28
 70
     1
102
RTVSPropertyOp29
 70
     1
102
RTVSPropertyOp30
 70
     1
102
RTVSPropertyOp31
 70
     1
102
RTVSPropertyOp32
 70
     1
  0
XRECORD
  5
32B
102
{ACAD_REACTORS
330
32A
102
}
330
32A
100
AcDbXrecord
280
     1
102
RTVSPropertyOp0
 70
     1
102
RTVSPropertyOp1
 70
     1
102
RTVSPropertyOp2
 70
     1
102
RTVSPropertyOp3
 70
     1
102
RTVSPropertyOp4
 70
     1
102
RTVSPropertyOp5
 70
     1
102
RTVSPropertyOp6
 70
     1
102
RTVSPropertyOp7
 70
     1
102
RTVSPropertyOp8
 70
     1
102
RTVSPropertyOp9
 70
     1
102
RTVSPropertyOp10
 70
     1
102
RTVSPropertyOp11
 70
     1
102
RTVSPropertyOp12
 70
     1
102
RTVSPropertyOp13
 70
     1
102
RTVSPropertyOp14
 70
     1
102
RTVSPropertyOp15
 70
     1
102
RTVSPropertyOp16
 70
     1
102
RTVSPropertyOp17
 70
     1
102
RTVSPropertyOp18
 70
     1
102
RTVSPropertyOp19
 70
     1
102
RTVSPropertyOp20
 70
     1
102
RTVSPropertyOp21
 70
     1
102
RTVSPropertyOp22
 70
     1
102
RTVSPropertyOp23
 70
     1
102
RTVSPropertyOp24
 70
     1
102
RTVSPropertyOp25
 70
     1
102
RTVSPropertyOp26
 70
     1
102
RTVSPropertyOp27
 70
     1
102
RTVSPropertyOp28
 70
     1
102
RTVSPropertyOp29
 70
     1
102
RTVSPropertyOp30
 70
     1
102
RTVSPropertyOp31
 70
     1
102
RTVSPropertyOp32
 70
     1
  0
XRECORD
  5
333
102
{ACAD_REACTORS
330
332
102
}
330
332
100
AcDbXrecord
280
     1
102
RTVSPropertyOp0
 70
     1
102
RTVSPropertyOp1
 70
     1
102
RTVSPropertyOp2
 70
     1
102
RTVSPropertyOp3
 70
     1
102
RTVSPropertyOp4
 70
     1
102
RTVSPropertyOp5
 70
     1
102
RTVSPropertyOp6
 70
     1
102
RTVSPropertyOp7
 70
     1
102
RTVSPropertyOp8
 70
     1
102
RTVSPropertyOp9
 70
     1
102
RTVSPropertyOp10
 70
     1
102
RTVSPropertyOp11
 70
     1
102
RTVSPropertyOp12
 70
     1
102
RTVSPropertyOp13
 70
     1
102
RTVSPropertyOp14
 70
     1
102
RTVSPropertyOp15
 70
     1
102
RTVSPropertyOp16
 70
     1
102
RTVSPropertyOp17
 70
     1
102
RTVSPropertyOp18
 70
     1
102
RTVSPropertyOp19
 70
     1
102
RTVSPropertyOp20
 70
     1
102
RTVSPropertyOp21
 70
     1
102
RTVSPropertyOp22
 70
     1
102
RTVSPropertyOp23
 70
     1
102
RTVSPropertyOp24
 70
     1
102
RTVSPropertyOp25
 70
     1
102
RTVSPropertyOp26
 70
     1
102
RTVSPropertyOp27
 70
     1
102
RTVSPropertyOp28
 70
     1
102
RTVSPropertyOp29
 70
     1
102
RTVSPropertyOp30
 70
     1
102
RTVSPropertyOp31
 70
     1
102
RTVSPropertyOp32
 70
     1
  0
XRECORD
  5
327
102
{ACAD_REACTORS
330
326
102
}
330
326
100
AcDbXrecord
280
     1
102
RTVSPropertyOp0
 70
     1
102
RTVSPropertyOp1
 70
     1
102
RTVSPropertyOp2
 70
     1
102
RTVSPropertyOp3
 70
     1
102
RTVSPropertyOp4
 70
     1
102
RTVSPropertyOp5
 70
     1
102
RTVSPropertyOp6
 70
     1
102
RTVSPropertyOp7
 70
     1
102
RTVSPropertyOp8
 70
     1
102
RTVSPropertyOp9
 70
     1
102
RTVSPropertyOp10
 70
     1
102
RTVSPropertyOp11
 70
     1
102
RTVSPropertyOp12
 70
     1
102
RTVSPropertyOp13
 70
     1
102
RTVSPropertyOp14
 70
     1
102
RTVSPropertyOp15
 70
     1
102
RTVSPropertyOp16
 70
     1
102
RTVSPropertyOp17
 70
     1
102
RTVSPropertyOp18
 70
     1
102
RTVSPropertyOp19
 70
     1
102
RTVSPropertyOp20
 70
     1
102
RTVSPropertyOp21
 70
     1
102
RTVSPropertyOp22
 70
     1
102
RTVSPropertyOp23
 70
     1
102
RTVSPropertyOp24
 70
     1
102
RTVSPropertyOp25
 70
     1
102
RTVSPropertyOp26
 70
     1
102
RTVSPropertyOp27
 70
     1
102
RTVSPropertyOp28
 70
     1
102
RTVSPropertyOp29
 70
     1
102
RTVSPropertyOp30
 70
     1
102
RTVSPropertyOp31
 70
     1
102
RTVSPropertyOp32
 70
     1
  0
XRECORD
  5
329
102
{ACAD_REACTORS
330
328
102
}
330
328
100
AcDbXrecord
280
     1
102
RTVSPropertyOp0
 70
     1
102
RTVSPropertyOp1
 70
     1
102
RTVSPropertyOp2
 70
     1
102
RTVSPropertyOp3
 70
     1
102
RTVSPropertyOp4
 70
     1
102
RTVSPropertyOp5
 70
     1
102
RTVSPropertyOp6
 70
     1
102
RTVSPropertyOp7
 70
     1
102
RTVSPropertyOp8
 70
     1
102
RTVSPropertyOp9
 70
     1
102
RTVSPropertyOp10
 70
     1
102
RTVSPropertyOp11
 70
     1
102
RTVSPropertyOp12
 70
     1
102
RTVSPropertyOp13
 70
     1
102
RTVSPropertyOp14
 70
     1
102
RTVSPropertyOp15
 70
     1
102
RTVSPropertyOp16
 70
     1
102
RTVSPropertyOp17
 70
     1
102
RTVSPropertyOp18
 70
     1
102
RTVSPropertyOp19
 70
     1
102
RTVSPropertyOp20
 70
     1
102
RTVSPropertyOp21
 70
     1
102
RTVSPropertyOp22
 70
     1
102
RTVSPropertyOp23
 70
     1
102
RTVSPropertyOp24
 70
     1
102
RTVSPropertyOp25
 70
     1
102
RTVSPropertyOp26
 70
     1
102
RTVSPropertyOp27
 70
     1
102
RTVSPropertyOp28
 70
     1
102
RTVSPropertyOp29
 70
     1
102
RTVSPropertyOp30
 70
     1
102
RTVSPropertyOp31
 70
     1
102
RTVSPropertyOp32
 70
     1
  0
XRECORD
  5
331
102
{ACAD_REACTORS
330
330
102
}
330
330
100
AcDbXrecord
280
     1
102
RTVSPropertyOp0
 70
     1
102
RTVSPropertyOp1
 70
     1
102
RTVSPropertyOp2
 70
     1
102
RTVSPropertyOp3
 70
     1
102
RTVSPropertyOp4
 70
     1
102
RTVSPropertyOp5
 70
     1
102
RTVSPropertyOp6
 70
     1
102
RTVSPropertyOp7
 70
     1
102
RTVSPropertyOp8
 70
     1
102
RTVSPropertyOp9
 70
     1
102
RTVSPropertyOp10
 70
     1
102
RTVSPropertyOp11
 70
     1
102
RTVSPropertyOp12
 70
     1
102
RTVSPropertyOp13
 70
     1
102
RTVSPropertyOp14
 70
     1
102
RTVSPropertyOp15
 70
     1
102
RTVSPropertyOp16
 70
     1
102
RTVSPropertyOp17
 70
     1
102
RTVSPropertyOp18
 70
     1
102
RTVSPropertyOp19
 70
     1
102
RTVSPropertyOp20
 70
     1
102
RTVSPropertyOp21
 70
     1
102
RTVSPropertyOp22
 70
     1
102
RTVSPropertyOp23
 70
     1
102
RTVSPropertyOp24
 70
     1
102
RTVSPropertyOp25
 70
     1
102
RTVSPropertyOp26
 70
     1
102
RTVSPropertyOp27
 70
     1
102
RTVSPropertyOp28
 70
     1
102
RTVSPropertyOp29
 70
     1
102
RTVSPropertyOp30
 70
     1
102
RTVSPropertyOp31
 70
     1
102
RTVSPropertyOp32
 70
     1
  0
XRECORD
  5
315
102
{ACAD_REACTORS
330
314
102
}
330
314
100
AcDbXrecord
280
     1
102
RTVSPropertyOp0
 70
     1
102
RTVSPropertyOp1
 70
     1
102
RTVSPropertyOp2
 70
     1
102
RTVSPropertyOp3
 70
     1
102
RTVSPropertyOp4
 70
     1
102
RTVSPropertyOp5
 70
     1
102
RTVSPropertyOp6
 70
     1
102
RTVSPropertyOp7
 70
     1
102
RTVSPropertyOp8
 70
     1
102
RTVSPropertyOp9
 70
     1
102
RTVSPropertyOp10
 70
     1
102
RTVSPropertyOp11
 70
     1
102
RTVSPropertyOp12
 70
     1
102
RTVSPropertyOp13
 70
     1
102
RTVSPropertyOp14
 70
     1
102
RTVSPropertyOp15
 70
     1
102
RTVSPropertyOp16
 70
     1
102
RTVSPropertyOp17
 70
     1
102
RTVSPropertyOp18
 70
     1
102
RTVSPropertyOp19
 70
     1
102
RTVSPropertyOp20
 70
     1
102
RTVSPropertyOp21
 70
     1
102
RTVSPropertyOp22
 70
     1
102
RTVSPropertyOp23
 70
     1
102
RTVSPropertyOp24
 70
     1
102
RTVSPropertyOp25
 70
     1
102
RTVSPropertyOp26
 70
     1
102
RTVSPropertyOp27
 70
     1
102
RTVSPropertyOp28
 70
     1
102
RTVSPropertyOp29
 70
     1
102
RTVSPropertyOp30
 70
     1
102
RTVSPropertyOp31
 70
     1
102
RTVSPropertyOp32
 70
     1
  0
XRECORD
  5
317
102
{ACAD_REACTORS
330
316
102
}
330
316
100
AcDbXrecord
280
     1
102
RTVSPropertyOp0
 70
     1
102
RTVSPropertyOp1
 70
     1
102
RTVSPropertyOp2
 70
     1
102
RTVSPropertyOp3
 70
     1
102
RTVSPropertyOp4
 70
     1
102
RTVSPropertyOp5
 70
     1
102
RTVSPropertyOp6
 70
     1
102
RTVSPropertyOp7
 70
     1
102
RTVSPropertyOp8
 70
     1
102
RTVSPropertyOp9
 70
     1
102
RTVSPropertyOp10
 70
     1
102
RTVSPropertyOp11
 70
     1
102
RTVSPropertyOp12
 70
     1
102
RTVSPropertyOp13
 70
     1
102
RTVSPropertyOp14
 70
     1
102
RTVSPropertyOp15
 70
     1
102
RTVSPropertyOp16
 70
     1
102
RTVSPropertyOp17
 70
     1
102
RTVSPropertyOp18
 70
     1
102
RTVSPropertyOp19
 70
     1
102
RTVSPropertyOp20
 70
     1
102
RTVSPropertyOp21
 70
     1
102
RTVSPropertyOp22
 70
     1
102
RTVSPropertyOp23
 70
     1
102
RTVSPropertyOp24
 70
     1
102
RTVSPropertyOp25
 70
     1
102
RTVSPropertyOp26
 70
     1
102
RTVSPropertyOp27
 70
     1
102
RTVSPropertyOp28
 70
     1
102
RTVSPropertyOp29
 70
     1
102
RTVSPropertyOp30
 70
     1
102
RTVSPropertyOp31
 70
     1
102
RTVSPropertyOp32
 70
     1
  0
XRECORD
  5
319
102
{ACAD_REACTORS
330
318
102
}
330
318
100
AcDbXrecord
280
     1
102
RTVSPropertyOp0
 70
     1
102
RTVSPropertyOp1
 70
     1
102
RTVSPropertyOp2
 70
     1
102
RTVSPropertyOp3
 70
     1
102
RTVSPropertyOp4
 70
     1
102
RTVSPropertyOp5
 70
     1
102
RTVSPropertyOp6
 70
     1
102
RTVSPropertyOp7
 70
     1
102
RTVSPropertyOp8
 70
     1
102
RTVSPropertyOp9
 70
     1
102
RTVSPropertyOp10
 70
     1
102
RTVSPropertyOp11
 70
     1
102
RTVSPropertyOp12
 70
     1
102
RTVSPropertyOp13
 70
     1
102
RTVSPropertyOp14
 70
     1
102
RTVSPropertyOp15
 70
     1
102
RTVSPropertyOp16
 70
     1
102
RTVSPropertyOp17
 70
     1
102
RTVSPropertyOp18
 70
     1
102
RTVSPropertyOp19
 70
     1
102
RTVSPropertyOp20
 70
     1
102
RTVSPropertyOp21
 70
     1
102
RTVSPropertyOp22
 70
     1
102
RTVSPropertyOp23
 70
     1
102
RTVSPropertyOp24
 70
     1
102
RTVSPropertyOp25
 70
     1
102
RTVSPropertyOp26
 70
     1
102
RTVSPropertyOp27
 70
     1
102
RTVSPropertyOp28
 70
     1
102
RTVSPropertyOp29
 70
     1
102
RTVSPropertyOp30
 70
     1
102
RTVSPropertyOp31
 70
     1
102
RTVSPropertyOp32
 70
     1
  0
XRECORD
  5
31B
102
{ACAD_REACTORS
330
31A
102
}
330
31A
100
AcDbXrecord
280
     1
102
RTVSPropertyOp0
 70
     1
102
RTVSPropertyOp1
 70
     1
102
RTVSPropertyOp2
 70
     1
102
RTVSPropertyOp3
 70
     1
102
RTVSPropertyOp4
 70
     1
102
RTVSPropertyOp5
 70
     1
102
RTVSPropertyOp6
 70
     1
102
RTVSPropertyOp7
 70
     1
102
RTVSPropertyOp8
 70
     1
102
RTVSPropertyOp9
 70
     1
102
RTVSPropertyOp10
 70
     1
102
RTVSPropertyOp11
 70
     1
102
RTVSPropertyOp12
 70
     1
102
RTVSPropertyOp13
 70
     1
102
RTVSPropertyOp14
 70
     1
102
RTVSPropertyOp15
 70
     1
102
RTVSPropertyOp16
 70
     1
102
RTVSPropertyOp17
 70
     1
102
RTVSPropertyOp18
 70
     1
102
RTVSPropertyOp19
 70
     1
102
RTVSPropertyOp20
 70
     1
102
RTVSPropertyOp21
 70
     1
102
RTVSPropertyOp22
 70
     1
102
RTVSPropertyOp23
 70
     1
102
RTVSPropertyOp24
 70
     1
102
RTVSPropertyOp25
 70
     1
102
RTVSPropertyOp26
 70
     1
102
RTVSPropertyOp27
 70
     1
102
RTVSPropertyOp28
 70
     1
102
RTVSPropertyOp29
 70
     1
102
RTVSPropertyOp30
 70
     1
102
RTVSPropertyOp31
 70
     1
102
RTVSPropertyOp32
 70
     1
  0
XRECORD
  5
32F
102
{ACAD_REACTORS
330
32E
102
}
330
32E
100
AcDbXrecord
280
     1
102
RTVSPropertyOp0
 70
     1
102
RTVSPropertyOp1
 70
     1
102
RTVSPropertyOp2
 70
     1
102
RTVSPropertyOp3
 70
     1
102
RTVSPropertyOp4
 70
     1
102
RTVSPropertyOp5
 70
     1
102
RTVSPropertyOp6
 70
     1
102
RTVSPropertyOp7
 70
     1
102
RTVSPropertyOp8
 70
     1
102
RTVSPropertyOp9
 70
     1
102
RTVSPropertyOp10
 70
     1
102
RTVSPropertyOp11
 70
     1
102
RTVSPropertyOp12
 70
     1
102
RTVSPropertyOp13
 70
     1
102
RTVSPropertyOp14
 70
     1
102
RTVSPropertyOp15
 70
     1
102
RTVSPropertyOp16
 70
     1
102
RTVSPropertyOp17
 70
     1
102
RTVSPropertyOp18
 70
     1
102
RTVSPropertyOp19
 70
     1
102
RTVSPropertyOp20
 70
     1
102
RTVSPropertyOp21
 70
     1
102
RTVSPropertyOp22
 70
     1
102
RTVSPropertyOp23
 70
     1
102
RTVSPropertyOp24
 70
     1
102
RTVSPropertyOp25
 70
     1
102
RTVSPropertyOp26
 70
     1
102
RTVSPropertyOp27
 70
     1
102
RTVSPropertyOp28
 70
     1
102
RTVSPropertyOp29
 70
     1
102
RTVSPropertyOp30
 70
     1
102
RTVSPropertyOp31
 70
     1
102
RTVSPropertyOp32
 70
     1
  0
XRECORD
  5
325
102
{ACAD_REACTORS
330
324
102
}
330
324
100
AcDbXrecord
280
     1
102
RTVSPropertyOp0
 70
     1
102
RTVSPropertyOp1
 70
     1
102
RTVSPropertyOp2
 70
     1
102
RTVSPropertyOp3
 70
     1
102
RTVSPropertyOp4
 70
     1
102
RTVSPropertyOp5
 70
     1
102
RTVSPropertyOp6
 70
     1
102
RTVSPropertyOp7
 70
     1
102
RTVSPropertyOp8
 70
     1
102
RTVSPropertyOp9
 70
     1
102
RTVSPropertyOp10
 70
     1
102
RTVSPropertyOp11
 70
     1
102
RTVSPropertyOp12
 70
     1
102
RTVSPropertyOp13
 70
     1
102
RTVSPropertyOp14
 70
     1
102
RTVSPropertyOp15
 70
     1
102
RTVSPropertyOp16
 70
     1
102
RTVSPropertyOp17
 70
     1
102
RTVSPropertyOp18
 70
     1
102
RTVSPropertyOp19
 70
     1
102
RTVSPropertyOp20
 70
     1
102
RTVSPropertyOp21
 70
     1
102
RTVSPropertyOp22
 70
     1
102
RTVSPropertyOp23
 70
     1
102
RTVSPropertyOp24
 70
     1
102
RTVSPropertyOp25
 70
     1
102
RTVSPropertyOp26
 70
     1
102
RTVSPropertyOp27
 70
     1
102
RTVSPropertyOp28
 70
     1
102
RTVSPropertyOp29
 70
     1
102
RTVSPropertyOp30
 70
     1
102
RTVSPropertyOp31
 70
     1
102
RTVSPropertyOp32
 70
     1
  0
XRECORD
  5
32D
102
{ACAD_REACTORS
330
32C
102
}
330
32C
100
AcDbXrecord
280
     1
102
RTVSPropertyOp0
 70
     1
102
RTVSPropertyOp1
 70
     1
102
RTVSPropertyOp2
 70
     1
102
RTVSPropertyOp3
 70
     1
102
RTVSPropertyOp4
 70
     1
102
RTVSPropertyOp5
 70
     1
102
RTVSPropertyOp6
 70
     1
102
RTVSPropertyOp7
 70
     1
102
RTVSPropertyOp8
 70
     1
102
RTVSPropertyOp9
 70
     1
102
RTVSPropertyOp10
 70
     1
102
RTVSPropertyOp11
 70
     1
102
RTVSPropertyOp12
 70
     1
102
RTVSPropertyOp13
 70
     1
102
RTVSPropertyOp14
 70
     1
102
RTVSPropertyOp15
 70
     1
102
RTVSPropertyOp16
 70
     1
102
RTVSPropertyOp17
 70
     1
102
RTVSPropertyOp18
 70
     1
102
RTVSPropertyOp19
 70
     1
102
RTVSPropertyOp20
 70
     1
102
RTVSPropertyOp21
 70
     1
102
RTVSPropertyOp22
 70
     1
102
RTVSPropertyOp23
 70
     1
102
RTVSPropertyOp24
 70
     1
102
RTVSPropertyOp25
 70
     1
102
RTVSPropertyOp26
 70
     1
102
RTVSPropertyOp27
 70
     1
102
RTVSPropertyOp28
 70
     1
102
RTVSPropertyOp29
 70
     1
102
RTVSPropertyOp30
 70
     1
102
RTVSPropertyOp31
 70
     1
102
RTVSPropertyOp32
 70
     1
  0
ENDSEC
  0
EOF
