  0
SECTION
  2
HEADER
  9
$ACADVER
  1
AC1015
  9
$ACADMAINTVER
 70
     6
  9
$DWGCODEPAGE
  3
ANSI_1252
  9
$INSBASE
 10
0.0
 20
0.0
 30
0.0
  9
$EXTMIN
 10
1.000000000000000E+20
 20
1.000000000000000E+20
 30
1.000000000000000E+20
  9
$EXTMAX
 10
-1.000000000000000E+20
 20
-1.000000000000000E+20
 30
-1.000000000000000E+20
  9
$LIMMIN
 10
0.0
 20
0.0
  9
$LIMMAX
 10
12.0
 20
9.0
  9
$ORTHOMODE
 70
     0
  9
$REGENMODE
 70
     1
  9
$FILLMODE
 70
     1
  9
$QTEXTMODE
 70
     0
  9
$MIRRTEXT
 70
     1
  9
$LTSCALE
 40
1.0
  9
$ATTMODE
 70
     1
  9
$TEXTSIZE
 40
0.2
  9
$TRACEWID
 40
0.05
  9
$TEXTSTYLE
  7
Standard
  9
$CLAYER
  8
0
  9
$CELTYPE
  6
ByLayer
  9
$CECOLOR
 62
   256
  9
$CELTSCALE
 40
1.0
  9
$DISPSILH
 70
     0
  9
$DIMSCALE
 40
1.0
  9
$DIMASZ
 40
0.18
  9
$DIMEXO
 40
0.0625
  9
$DIMDLI
 40
0.38
  9
$DIMRND
 40
0.0
  9
$DIMDLE
 40
0.0
  9
$DIMEXE
 40
0.18
  9
$DIMTP
 40
0.0
  9
$DIMTM
 40
0.0
  9
$DIMTXT
 40
0.18
  9
$DIMCEN
 40
0.09
  9
$DIMTSZ
 40
0.0
  9
$DIMTOL
 70
     0
  9
$DIMLIM
 70
     0
  9
$DIMTIH
 70
     1
  9
$DIMTOH
 70
     1
  9
$DIMSE1
 70
     0
  9
$DIMSE2
 70
     0
  9
$DIMTAD
 70
     0
  9
$DIMZIN
 70
     0
  9
$DIMBLK
  1

  9
$DIMASO
 70
     1
  9
$DIMSHO
 70
     1
  9
$DIMPOST
  1

  9
$DIMAPOST
  1

  9
$DIMALT
 70
     0
  9
$DIMALTD
 70
     2
  9
$DIMALTF
 40
25.4
  9
$DIMLFAC
 40
1.0
  9
$DIMTOFL
 70
     0
  9
$DIMTVP
 40
0.0
  9
$DIMTIX
 70
     0
  9
$DIMSOXD
 70
     0
  9
$DIMSAH
 70
     0
  9
$DIMBLK1
  1

  9
$DIMBLK2
  1

  9
$DIMSTYLE
  2
Standard
  9
$DIMCLRD
 70
     0
  9
$DIMCLRE
 70
     0
  9
$DIMCLRT
 70
     0
  9
$DIMTFAC
 40
1.0
  9
$DIMGAP
 40
0.09
  9
$DIMJUST
 70
     0
  9
$DIMSD1
 70
     0
  9
$DIMSD2
 70
     0
  9
$DIMTOLJ
 70
     1
  9
$DIMTZIN
 70
     0
  9
$DIMALTZ
 70
     0
  9
$DIMALTTZ
 70
     0
  9
$DIMUPT
 70
     0
  9
$DIMDEC
 70
     4
  9
$DIMTDEC
 70
     4
  9
$DIMALTU
 70
     2
  9
$DIMALTTD
 70
     2
  9
$DIMTXSTY
  7
Standard
  9
$DIMAUNIT
 70
     0
  9
$DIMADEC
 70
     0
  9
$DIMALTRND
 40
0.0
  9
$DIMAZIN
 70
     0
  9
$DIMDSEP
 70
    46
  9
$DIMATFIT
 70
     3
  9
$DIMFRAC
 70
     0
  9
$DIMLDRBLK
  1

  9
$DIMLUNIT
 70
     2
  9
$DIMLWD
 70
    -2
  9
$DIMLWE
 70
    -2
  9
$DIMTMOVE
 70
     0
  9
$LUNITS
 70
     2
  9
$LUPREC
 70
     4
  9
$SKETCHINC
 40
0.1
  9
$FILLETRAD
 40
0.5
  9
$AUNITS
 70
     0
  9
$AUPREC
 70
     0
  9
$MENU
  1
.
  9
$ELEVATION
 40
0.0
  9
$PELEVATION
 40
0.0
  9
$THICKNESS
 40
0.0
  9
$LIMCHECK
 70
     0
  9
$CHAMFERA
 40
0.5
  9
$CHAMFERB
 40
0.5
  9
$CHAMFERC
 40
1.0
  9
$CHAMFERD
 40
0.0
  9
$SKPOLY
 70
     0
  9
$TDCREATE
 40
2458926.464676968
  9
$TDUCREATE
 40
2458925.923010301
  9
$TDUPDATE
 40
2458926.464677083
  9
$TDUUPDATE
 40
2458925.923010417
  9
$TDINDWG
 40
0.0000000116
  9
$TDUSRTIMER
 40
0.0000000116
  9
$USRTIMER
 70
     1
  9
$ANGBASE
 50
0.0
  9
$ANGDIR
 70
     0
  9
$PDMODE
 70
     0
  9
$PDSIZE
 40
0.0
  9
$PLINEWID
 40
0.0
  9
$SPLFRAME
 70
     0
  9
$SPLINETYPE
 70
     6
  9
$SPLINESEGS
 70
     8
  9
$HANDSEED
  5
3EE
  9
$SURFTAB1
 70
     6
  9
$SURFTAB2
 70
     6
  9
$SURFTYPE
 70
     6
  9
$SURFU
 70
     6
  9
$SURFV
 70
     6
  9
$UCSBASE
  2

  9
$UCSNAME
  2

  9
$UCSORG
 10
0.0
 20
0.0
 30
0.0
  9
$UCSXDIR
 10
1.0
 20
0.0
 30
0.0
  9
$UCSYDIR
 10
0.0
 20
1.0
 30
0.0
  9
$UCSORTHOREF
  2

  9
$UCSORTHOVIEW
 70
     0
  9
$UCSORGTOP
 10
0.0
 20
0.0
 30
0.0
  9
$UCSORGBOTTOM
 10
0.0
 20
0.0
 30
0.0
  9
$UCSORGLEFT
 10
0.0
 20
0.0
 30
0.0
  9
$UCSORGRIGHT
 10
0.0
 20
0.0
 30
0.0
  9
$UCSORGFRONT
 10
0.0
 20
0.0
 30
0.0
  9
$UCSORGBACK
 10
0.0
 20
0.0
 30
0.0
  9
$PUCSBASE
  2

  9
$PUCSNAME
  2

  9
$PUCSORG
 10
0.0
 20
0.0
 30
0.0
  9
$PUCSXDIR
 10
1.0
 20
0.0
 30
0.0
  9
$PUCSYDIR
 10
0.0
 20
1.0
 30
0.0
  9
$PUCSORTHOREF
  2

  9
$PUCSORTHOVIEW
 70
     0
  9
$PUCSORGTOP
 10
0.0
 20
0.0
 30
0.0
  9
$PUCSORGBOTTOM
 10
0.0
 20
0.0
 30
0.0
  9
$PUCSORGLEFT
 10
0.0
 20
0.0
 30
0.0
  9
$PUCSORGRIGHT
 10
0.0
 20
0.0
 30
0.0
  9
$PUCSORGFRONT
 10
0.0
 20
0.0
 30
0.0
  9
$PUCSORGBACK
 10
0.0
 20
0.0
 30
0.0
  9
$USERI1
 70
     0
  9
$USERI2
 70
     0
  9
$USERI3
 70
     0
  9
$USERI4
 70
     0
  9
$USERI5
 70
     0
  9
$USERR1
 40
0.0
  9
$USERR2
 40
0.0
  9
$USERR3
 40
0.0
  9
$USERR4
 40
0.0
  9
$USERR5
 40
0.0
  9
$WORLDVIEW
 70
     1
  9
$SHADEDGE
 70
     3
  9
$SHADEDIF
 70
    70
  9
$TILEMODE
 70
     1
  9
$MAXACTVP
 70
    64
  9
$PINSBASE
 10
0.0
 20
0.0
 30
0.0
  9
$PLIMCHECK
 70
     0
  9
$PEXTMIN
 10
1.000000000000000E+20
 20
1.000000000000000E+20
 30
1.000000000000000E+20
  9
$PEXTMAX
 10
-1.000000000000000E+20
 20
-1.000000000000000E+20
 30
-1.000000000000000E+20
  9
$PLIMMIN
 10
0.0
 20
0.0
  9
$PLIMMAX
 10
12.0
 20
9.0
  9
$UNITMODE
 70
     0
  9
$VISRETAIN
 70
     1
  9
$PLINEGEN
 70
     0
  9
$PSLTSCALE
 70
     1
  9
$TREEDEPTH
 70
  3020
  9
$CMLSTYLE
  2
Standard
  9
$CMLJUST
 70
     0
  9
$CMLSCALE
 40
1.0
  9
$PROXYGRAPHICS
 70
     1
  9
$MEASUREMENT
 70
     0
  9
$CELWEIGHT
370
    -1
  9
$ENDCAPS
280
     0
  9
$JOINSTYLE
280
     0
  9
$LWDISPLAY
290
     1
  9
$INSUNITS
 70
     4
  9
$HYPERLINKBASE
  1

  9
$STYLESHEET
  1

  9
$XEDIT
290
     1
  9
$CEPSNTYPE
380
     0
  9
$PSTYLEMODE
290
     1
  9
$FINGERPRINTGUID
  2
{BDAEABA9-ECFB-4F89-97C1-1AFC78EA1401}
  9
$VERSIONGUID
  2
{FAEB1C32-E019-11D5-929B-00C0DF256EC4}
  9
$EXTNAMES
290
     1
  9
$PSVPSCALE
 40
0.0
  9
$OLESTARTUP
290
     0
  0
ENDSEC
  0
SECTION
  2
CLASSES
  0
CLASS
  1
ACDBDICTIONARYWDFLT
  2
AcDbDictionaryWithDefault
  3
ObjectDBX Classes
 90
        0
280
     0
281
     0
  0
CLASS
  1
VISUALSTYLE
  2
AcDbVisualStyle
  3
ObjectDBX Classes
 90
     4095
280
     0
281
     0
  0
CLASS
  1
MATERIAL
  2
AcDbMaterial
  3
ObjectDBX Classes
 90
     1153
280
     0
281
     0
  0
CLASS
  1
SUN
  2
AcDbSun
  3
SCENEOE
 90
     1024
280
     0
281
     0
  0
CLASS
  1
DICTIONARYVAR
  2
AcDbDictionaryVar
  3
ObjectDBX Classes
 90
        0
280
     0
281
     0
  0
CLASS
  1
ACDBPLACEHOLDER
  2
AcDbPlaceHolder
  3
ObjectDBX Classes
 90
        0
280
     0
281
     0
  0
CLASS
  1
LAYOUT
  2
AcDbLayout
  3
ObjectDBX Classes
 90
        0
280
     0
281
     0
  0
ENDSEC
  0
SECTION
  2
TABLES
  0
TABLE
  2
VPORT
  5
8
330
0
100
AcDbSymbolTable
 70
     1
  0
VPORT
  5
29
330
8
100
AcDbSymbolTableRecord
100
AcDbViewportTableRecord
  2
*Active
 70
     0
 10
0.0
 20
0.0
 11
1.0
 21
1.0
 12
0.0
 22
0.0
 13
0.0
 23
0.0
 14
0.5
 24
0.5
 15
0.5
 25
0.5
 16
0.0
 26
0.0
 36
1.0
 17
594.4993281255732
 27
420.5005173373662
 37
0.0
 40
841.0010346747324
 41
1.413789766276573
 42
50.0
 43
0.0
 44
0.0
 50
0.0
 51
0.0
 71
     0
 72
   100
 73
     1
 74
     3
 75
     0
 76
     0
 77
     0
 78
     0
281
     0
 65
     1
110
0.0
120
0.0
130
0.0
111
1.0
121
0.0
131
0.0
112
0.0
122
1.0
132
0.0
 79
     0
146
0.0
  0
ENDTAB
  0
TABLE
  2
LTYPE
  5
5
330
0
100
AcDbSymbolTable
 70
     1
  0
LTYPE
  5
14
330
5
100
AcDbSymbolTableRecord
100
AcDbLinetypeTableRecord
  2
ByBlock
 70
     0
  3

 72
    65
 73
     0
 40
0.0
  0
LTYPE
  5
15
330
5
100
AcDbSymbolTableRecord
100
AcDbLinetypeTableRecord
  2
ByLayer
 70
     0
  3

 72
    65
 73
     0
 40
0.0
  0
LTYPE
  5
16
330
5
100
AcDbSymbolTableRecord
100
AcDbLinetypeTableRecord
  2
Continuous
 70
     0
  3
Solid line
 72
    65
 73
     0
 40
0.0
  0
ENDTAB
  0
TABLE
  2
LAYER
  5
2
330
0
100
AcDbSymbolTable
 70
     2
  0
LAYER
  5
10
330
2
100
AcDbSymbolTableRecord
100
AcDbLayerTableRecord
  2
0
 70
     0
 62
     7
  6
Continuous
370
    -3
390
F
  0
LAYER
  5
40
330
2
100
AcDbSymbolTableRecord
100
AcDbLayerTableRecord
  2
Layer 1
 70
     0
 62
     7
  6
Continuous
370
    -3
390
F
  0
ENDTAB
  0
TABLE
  2
STYLE
  5
3
330
0
100
AcDbSymbolTable
 70
     1
  0
STYLE
  5
11
330
3
100
AcDbSymbolTableRecord
100
AcDbTextStyleTableRecord
  2
Standard
 70
     0
 40
0.0
 41
1.0
 50
0.0
 71
     0
 42
0.2
  3
txt
  4

  0
ENDTAB
  0
TABLE
  2
VIEW
  5
6
330
0
100
AcDbSymbolTable
 70
     0
  0
ENDTAB
  0
TABLE
  2
UCS
  5
7
330
0
100
AcDbSymbolTable
 70
     0
  0
ENDTAB
  0
TABLE
  2
APPID
  5
9
330
0
100
AcDbSymbolTable
 70
     1
  0
APPID
  5
12
330
9
100
AcDbSymbolTableRecord
100
AcDbRegAppTableRecord
  2
ACAD
 70
     0
  0
ENDTAB
  0
TABLE
  2
DIMSTYLE
  5
A
330
0
100
AcDbSymbolTable
 70
     1
100
AcDbDimStyleTable
  0
DIMSTYLE
105
27
330
A
100
AcDbSymbolTableRecord
100
AcDbDimStyleTableRecord
  2
Standard
 70
     0
178
     0
340
11
  0
ENDTAB
  0
TABLE
  2
BLOCK_RECORD
  5
1
330
0
100
AcDbSymbolTable
 70
    11
  0
BLOCK_RECORD
  5
1F
330
1
100
AcDbSymbolTableRecord
100
AcDbBlockTableRecord
  2
*Model_Space
340
22
  0
BLOCK_RECORD
  5
1B
330
1
100
AcDbSymbolTableRecord
100
AcDbBlockTableRecord
  2
*Paper_Space
340
1E
  0
BLOCK_RECORD
  5
23
330
1
100
AcDbSymbolTableRecord
100
AcDbBlockTableRecord
  2
*Paper_Space0
340
26
  0
BLOCK_RECORD
  5
41
330
1
100
AcDbSymbolTableRecord
100
AcDbBlockTableRecord
  2
block 2
340
0
102
{BLKREFS
331
42
102
}
  0
BLOCK_RECORD
  5
83
330
1
100
AcDbSymbolTableRecord
100
AcDbBlockTableRecord
  2
block 3
340
0
102
{BLKREFS
331
84
102
}
  0
BLOCK_RECORD
  5
C2
330
1
100
AcDbSymbolTableRecord
100
AcDbBlockTableRecord
  2
block 4
340
0
102
{BLKREFS
331
C3
102
}
  0
BLOCK_RECORD
  5
EB
330
1
100
AcDbSymbolTableRecord
100
AcDbBlockTableRecord
  2
block 5
340
0
102
{BLKREFS
331
EC
102
}
  0
BLOCK_RECORD
  5
107
330
1
100
AcDbSymbolTableRecord
100
AcDbBlockTableRecord
  2
block 6
340
0
102
{BLKREFS
331
108
102
}
  0
BLOCK_RECORD
  5
1D2
330
1
100
AcDbSymbolTableRecord
100
AcDbBlockTableRecord
  2
block 7
340
0
102
{BLKREFS
331
1D3
102
}
  0
BLOCK_RECORD
  5
1F2
330
1
100
AcDbSymbolTableRecord
100
AcDbBlockTableRecord
  2
block 8
340
0
102
{BLKREFS
331
1F3
102
}
  0
BLOCK_RECORD
  5
212
330
1
100
AcDbSymbolTableRecord
100
AcDbBlockTableRecord
  2
block 9
340
0
102
{BLKREFS
331
213
102
}
  0
BLOCK_RECORD
  5
342
330
1
100
AcDbSymbolTableRecord
100
AcDbBlockTableRecord
  2
block 10
340
0
102
{BLKREFS
331
343
102
}
  0
BLOCK_RECORD
  5
354
330
1
100
AcDbSymbolTableRecord
100
AcDbBlockTableRecord
  2
block 11
340
0
102
{BLKREFS
331
355
102
}
  0
ENDTAB
  0
ENDSEC
  0
SECTION
  2
BLOCKS
  0
BLOCK
  5
20
330
1F
100
AcDbEntity
  8
0
100
AcDbBlockBegin
  2
*Model_Space
 70
     0
 10
0.0
 20
0.0
 30
0.0
  3
*Model_Space
  1

  0
ENDBLK
  5
21
330
1F
100
AcDbEntity
  8
0
100
AcDbBlockEnd
  0
BLOCK
  5
1C
330
1B
100
AcDbEntity
 67
     1
  8
0
100
AcDbBlockBegin
  2
*Paper_Space
 70
     0
 10
0.0
 20
0.0
 30
0.0
  3
*Paper_Space
  1

  0
ENDBLK
  5
1D
330
1B
100
AcDbEntity
 67
     1
  8
0
100
AcDbBlockEnd
  0
BLOCK
  5
24
330
23
100
AcDbEntity
  8
0
100
AcDbBlockBegin
  2
*Paper_Space0
 70
     0
 10
0.0
 20
0.0
 30
0.0
  3
*Paper_Space0
  1

  0
ENDBLK
  5
25
330
23
100
AcDbEntity
  8
0
100
AcDbBlockEnd
  0
BLOCK
  5
43
330
41
100
AcDbEntity
  8
0
100
AcDbBlockBegin
  2
block 2
 70
     0
 10
0.0
 20
0.0
 30
0.0
  3
block 2
  1

  0
SPLINE
  5
45
330
41
100
AcDbEntity
  8
Layer 1
 62
    40
370
    13
100
AcDbSpline
210
0.0
220
0.0
230
1.0
 70
    11
 71
     3
 72
    50
 73
    46
 74
     0
 42
0.0000000001
 43
0.0000000001
 12
1.0
 22
0.0
 32
0.0
 13
1.0
 23
0.0
 33
0.0
 40
0.0
 40
0.0
 40
0.0
 40
0.0
 40
1.0
 40
1.0
 40
1.0
 40
2.0
 40
2.0
 40
2.0
 40
3.0
 40
3.0
 40
3.0
 40
4.0
 40
4.0
 40
4.0
 40
5.0
 40
5.0
 40
5.0
 40
6.0
 40
6.0
 40
6.0
 40
7.0
 40
7.0
 40
7.0
 40
8.0
 40
8.0
 40
8.0
 40
9.0
 40
9.0
 40
9.0
 40
10.0
 40
10.0
 40
10.0
 40
11.0
 40
11.0
 40
11.0
 40
12.0
 40
12.0
 40
12.0
 40
13.0
 40
13.0
 40
13.0
 40
14.0
 40
14.0
 40
14.0
 40
15.0
 40
15.0
 40
15.0
 40
15.0
 10
98.9227444506571
 20
803.5149387175433
 30
0.0
 10
98.9227444506571
 20
806.6510229818603
 30
0.0
 10
97.83707422476817
 20
809.3239158949663
 30
0.0
 10
95.66865531448285
 20
811.5326012685281
 30
0.0
 10
93.4993472393908
 20
813.7403974772831
 30
0.0
 10
90.86767346613253
 20
814.8481062879615
 30
0.0
 10
87.78138243085935
 20
814.8481062879615
 30
0.0
 10
84.70474518488646
 20
814.8481062879615
 30
0.0
 10
82.0808198477792
 20
813.7403974772831
 30
0.0
 10
79.91233742572255
 20
811.5316485919456
 30
0.0
 10
77.74302935063501
 20
809.3201051886671
 30
0.0
 10
76.65926447789538
 20
806.6453069223992
 30
0.0
 10
76.65926447789538
 20
803.5082064697384
 30
0.0
 10
76.65926447789538
 20
800.3692641757125
 30
0.0
 10
77.74201316228536
 20
797.7011346454741
 30
0.0
 10
79.91233742572255
 20
795.5029922260302
 30
0.0
 10
82.07891449462734
 20
793.3038971299967
 30
0.0
 10
84.70188715515853
 20
792.206731273419
 30
0.0
 10
87.77661904798116
 20
792.206731273419
 30
0.0
 10
90.26151711677976
 20
792.206731273419
 30
0.0
 10
92.45680150650243
 20
792.8819249186445
 30
0.0
 10
94.35669264592777
 20
794.2265326378731
 30
0.0
 10
96.25366224385385
 20
795.5720295218911
 30
0.0
 10
97.54650786911682
 20
797.3817974572357
 30
0.0
 10
98.23510249817501
 20
799.6480244959823
 30
0.0
 10
98.23510249817501
 20
799.6480244959823
 30
0.0
 10
92.85578245649016
 20
799.6480244959823
 30
0.0
 10
92.85578245649016
 20
799.6480244959823
 30
0.0
 10
92.42898335048483
 20
798.8146230273886
 30
0.0
 10
91.77011223059898
 20
798.1452089533964
 30
0.0
 10
90.87338952558842
 20
797.646514521792
 30
0.0
 10
89.9766668205846
 20
797.1458512252751
 30
0.0
 10
88.98982091149406
 20
796.8984093626349
 30
0.0
 10
87.9099302568301
 20
796.8984093626349
 30
0.0
 10
86.16926312912425
 20
796.8984093626349
 30
0.0
 10
84.71433546241578
 20
797.5275569733519
 30
0.0
 10
83.54717963339785
 20
798.791568254254
 30
0.0
 10
82.87103331160108
 20
799.5300831358828
 30
0.0
 10
82.38675605218064
 20
800.3596738981703
 30
0.0
 10
82.09809504969044
 20
801.2765298348133
 30
0.0
 10
82.09809504969044
 20
801.2765298348133
 30
0.0
 10
98.73570228292385
 20
801.2765298348133
 30
0.0
 10
98.73570228292385
 20
801.2765298348133
 30
0.0
 10
98.8603758908215
 20
802.0082489568724
 30
0.0
 10
98.9227444506571
 20
802.7563541160437
 30
0.0
 10
98.9227444506571
 20
803.5149387175433
 30
0.0
  0
SPLINE
  5
46
330
41
100
AcDbEntity
  8
Layer 1
 62
    40
370
    13
100
AcDbSpline
210
0.0
220
0.0
230
1.0
 70
    11
 71
     3
 72
    20
 73
    16
 74
     0
 42
0.0000000001
 43
0.0000000001
 12
1.0
 22
0.0
 32
0.0
 13
1.0
 23
0.0
 33
0.0
 40
0.0
 40
0.0
 40
0.0
 40
0.0
 40
1.0
 40
1.0
 40
1.0
 40
2.0
 40
2.0
 40
2.0
 40
3.0
 40
3.0
 40
3.0
 40
4.0
 40
4.0
 40
4.0
 40
5.0
 40
5.0
 40
5.0
 40
5.0
 10
81.94941399207828
 20
805.340012989881
 30
0.0
 10
82.23616964142111
 20
806.4381315230274
 30
0.0
 10
82.7521392749223
 20
807.4077657419739
 30
0.0
 10
83.49446486286287
 20
808.2488521349511
 30
0.0
 10
84.64917238462579
 20
809.5205483402342
 30
0.0
 10
86.0791399250459
 20
810.155412010412
 30
0.0
 10
87.78811467866457
 20
810.155412010412
 30
0.0
 10
89.4942949143205
 20
810.155412010412
 30
0.0
 10
90.92616780789504
 20
809.5205483402342
 30
0.0
 10
92.0808753296493
 20
808.2488521349511
 30
0.0
 10
92.84905020868237
 20
807.4202140492395
 30
0.0
 10
93.35739842958223
 20
806.4515325068688
 30
0.0
 10
93.60769832195972
 20
805.340012989881
 30
0.0
 10
93.60769832195972
 20
805.340012989881
 30
0.0
 10
81.94941399207828
 20
805.340012989881
 30
0.0
 10
81.94941399207828
 20
805.340012989881
 30
0.0
  0
POLYLINE
  5
47
330
41
100
AcDbEntity
  8
Layer 1
 62
    40
370
    13
100
AcDb2dPolyline
 66
     1
 10
0.0
 20
0.0
 30
0.0
  0
VERTEX
  5
48
330
47
100
AcDbEntity
  8
Layer 1
 62
    40
370
    13
100
AcDbVertex
100
AcDb2dVertex
 10
120.5551975337298
 20
814.1594576340824
 30
0.0
  0
VERTEX
  5
49
330
47
100
AcDbEntity
  8
Layer 1
 62
    40
370
    13
100
AcDbVertex
100
AcDb2dVertex
 10
114.6099872395155
 20
814.1594576340824
 30
0.0
  0
VERTEX
  5
4A
330
47
100
AcDbEntity
  8
Layer 1
 62
    40
370
    13
100
AcDbVertex
100
AcDb2dVertex
 10
107.7633223248048
 20
804.0145883096317
 30
0.0
  0
VERTEX
  5
4B
330
47
100
AcDbEntity
  8
Layer 1
 62
    40
370
    13
100
AcDbVertex
100
AcDb2dVertex
 10
107.7565906831558
 20
804.0145883096317
 30
0.0
  0
VERTEX
  5
4C
330
47
100
AcDbEntity
  8
Layer 1
 62
    40
370
    13
100
AcDbVertex
100
AcDb2dVertex
 10
107.7565906831558
 20
821.2871539535381
 30
0.0
  0
VERTEX
  5
4D
330
47
100
AcDbEntity
  8
Layer 1
 62
    40
370
    13
100
AcDbVertex
100
AcDb2dVertex
 10
102.6275480365828
 20
821.2871539535381
 30
0.0
  0
VERTEX
  5
4E
330
47
100
AcDbEntity
  8
Layer 1
 62
    40
370
    13
100
AcDbVertex
100
AcDb2dVertex
 10
102.6275480365828
 20
792.893396802363
 30
0.0
  0
VERTEX
  5
4F
330
47
100
AcDbEntity
  8
Layer 1
 62
    40
370
    13
100
AcDbVertex
100
AcDb2dVertex
 10
107.7565906831558
 20
792.893396802363
 30
0.0
  0
VERTEX
  5
50
330
47
100
AcDbEntity
  8
Layer 1
 62
    40
370
    13
100
AcDbVertex
100
AcDb2dVertex
 10
107.7565906831558
 20
802.9941555815229
 30
0.0
  0
VERTEX
  5
51
330
47
100
AcDbEntity
  8
Layer 1
 62
    40
370
    13
100
AcDbVertex
100
AcDb2dVertex
 10
115.3474824839075
 20
792.893396802363
 30
0.0
  0
VERTEX
  5
52
330
47
100
AcDbEntity
  8
Layer 1
 62
    40
370
    13
100
AcDbVertex
100
AcDb2dVertex
 10
121.4902518264425
 20
792.893396802363
 30
0.0
  0
VERTEX
  5
53
330
47
100
AcDbEntity
  8
Layer 1
 62
    40
370
    13
100
AcDbVertex
100
AcDb2dVertex
 10
112.6218700492173
 20
803.8812798540249
 30
0.0
  0
VERTEX
  5
54
330
47
100
AcDbEntity
  8
Layer 1
 62
    40
370
    13
100
AcDbVertex
100
AcDb2dVertex
 10
120.5551975337298
 20
814.1594576340824
 30
0.0
  0
SEQEND
  5
55
330
47
100
AcDbEntity
  8
Layer 1
 62
    40
370
    13
  0
SPLINE
  5
56
330
41
100
AcDbEntity
  8
Layer 1
 62
    40
370
    13
100
AcDbSpline
210
0.0
220
0.0
230
1.0
 70
    11
 71
     3
 72
    17
 73
    13
 74
     0
 42
0.0000000001
 43
0.0000000001
 12
1.0
 22
0.0
 32
0.0
 13
1.0
 23
0.0
 33
0.0
 40
0.0
 40
0.0
 40
0.0
 40
0.0
 40
1.0
 40
1.0
 40
1.0
 40
2.0
 40
2.0
 40
2.0
 40
3.0
 40
3.0
 40
3.0
 40
4.0
 40
4.0
 40
4.0
 40
4.0
 10
124.2648305343213
 20
821.7033763927963
 30
0.0
 10
123.0573447302604
 20
821.7033763927963
 30
0.0
 10
122.0494129129569
 20
820.7500646991798
 30
0.0
 10
122.0494129129569
 20
819.487006094864
 30
0.0
 10
122.0494129129569
 20
818.2229948139623
 30
0.0
 10
123.0573447302604
 20
817.2696831203458
 30
0.0
 10
124.2648305343213
 20
817.2696831203458
 30
0.0
 10
125.4674259319614
 20
817.2696831203458
 30
0.0
 10
126.4831061854069
 20
818.2229948139623
 30
0.0
 10
126.4831061854069
 20
819.487006094864
 30
0.0
 10
126.4831061854069
 20
820.7500646991798
 30
0.0
 10
125.4674259319614
 20
821.7033763927963
 30
0.0
 10
124.2648305343213
 20
821.7033763927963
 30
0.0
  0
SPLINE
  5
57
330
41
100
AcDbEntity
  8
Layer 1
 62
    40
370
    13
100
AcDbSpline
210
0.0
220
0.0
230
1.0
 70
    11
 71
     3
 72
    17
 73
    13
 74
     0
 42
0.0000000001
 43
0.0000000001
 12
1.0
 22
0.0
 32
0.0
 13
1.0
 23
0.0
 33
0.0
 40
0.0
 40
0.0
 40
0.0
 40
0.0
 40
1.0
 40
1.0
 40
1.0
 40
2.0
 40
2.0
 40
2.0
 40
3.0
 40
3.0
 40
3.0
 40
4.0
 40
4.0
 40
4.0
 40
4.0
 10
124.2648305343213
 20
817.5928945266659
 30
0.0
 10
123.2471814159481
 20
817.5928945266659
 30
0.0
 10
122.4425507799435
 20
818.413847687997
 30
0.0
 10
122.4425507799435
 20
819.487006094864
 30
0.0
 10
122.4425507799435
 20
820.5582591485693
 30
0.0
 10
123.2471814159481
 20
821.3821338514099
 30
0.0
 10
124.2648305343213
 20
821.3821338514099
 30
0.0
 10
125.2794945994214
 20
821.3821338514099
 30
0.0
 10
126.0899048066512
 20
820.5582591485693
 30
0.0
 10
126.0899048066512
 20
819.487006094864
 30
0.0
 10
126.0899048066512
 20
818.413847687997
 30
0.0
 10
125.2794945994214
 20
817.5928945266659
 30
0.0
 10
124.2648305343213
 20
817.5928945266659
 30
0.0
  0
SPLINE
  5
58
330
41
100
AcDbEntity
  8
Layer 1
 62
    40
370
    13
100
AcDbSpline
210
0.0
220
0.0
230
1.0
 70
    11
 71
     3
 72
    35
 73
    31
 74
     0
 42
0.0000000001
 43
0.0000000001
 12
1.0
 22
0.0
 32
0.0
 13
1.0
 23
0.0
 33
0.0
 40
0.0
 40
0.0
 40
0.0
 40
0.0
 40
1.0
 40
1.0
 40
1.0
 40
2.0
 40
2.0
 40
2.0
 40
3.0
 40
3.0
 40
3.0
 40
4.0
 40
4.0
 40
4.0
 40
5.0
 40
5.0
 40
5.0
 40
6.0
 40
6.0
 40
6.0
 40
7.0
 40
7.0
 40
7.0
 40
8.0
 40
8.0
 40
8.0
 40
9.0
 40
9.0
 40
9.0
 40
10.0
 40
10.0
 40
10.0
 40
10.0
 10
124.6177019380321
 20
819.337435872449
 30
0.0
 10
125.0042345807581
 20
819.377702335721
 30
0.0
 10
125.3043912139404
 20
819.5742712692129
 30
0.0
 10
125.3043912139404
 20
820.0480690862998
 30
0.0
 10
125.3043912139404
 20
820.5410474584326
 30
0.0
 10
125.0099506402159
 20
820.7846151030017
 30
0.0
 10
124.39623639002
 20
820.7846151030017
 30
0.0
 10
124.39623639002
 20
820.7846151030017
 30
0.0
 10
123.4198699232677
 20
820.7846151030017
 30
0.0
 10
123.4198699232677
 20
820.7846151030017
 30
0.0
 10
123.4198699232677
 20
820.7846151030017
 30
0.0
 10
123.4198699232677
 20
818.1923186282221
 30
0.0
 10
123.4198699232677
 20
818.1923186282221
 30
0.0
 10
123.4198699232677
 20
818.1923186282221
 30
0.0
 10
123.8140239786037
 20
818.1923186282221
 30
0.0
 10
123.8140239786037
 20
818.1923186282221
 30
0.0
 10
123.8140239786037
 20
818.1923186282221
 30
0.0
 10
123.8140239786037
 20
819.3086650398566
 30
0.0
 10
123.8140239786037
 20
819.3086650398566
 30
0.0
 10
123.8140239786037
 20
819.3086650398566
 30
0.0
 10
124.2350435133776
 20
819.3086650398566
 30
0.0
 10
124.2350435133776
 20
819.3086650398566
 30
0.0
 10
124.2350435133776
 20
819.3086650398566
 30
0.0
 10
124.9399606677726
 20
818.1923186282221
 30
0.0
 10
124.9399606677726
 20
818.1923186282221
 30
0.0
 10
124.9399606677726
 20
818.1923186282221
 30
0.0
 10
125.3619328791223
 20
818.1923186282221
 30
0.0
 10
125.3619328791223
 20
818.1923186282221
 30
0.0
 10
125.3619328791223
 20
818.1923186282221
 30
0.0
 10
124.6177019380321
 20
819.337435872449
 30
0.0
 10
124.6177019380321
 20
819.337435872449
 30
0.0
  0
SPLINE
  5
59
330
41
100
AcDbEntity
  8
Layer 1
 62
    40
370
    13
100
AcDbSpline
210
0.0
220
0.0
230
1.0
 70
    11
 71
     3
 72
    20
 73
    16
 74
     0
 42
0.0000000001
 43
0.0000000001
 12
1.0
 22
0.0
 32
0.0
 13
1.0
 23
0.0
 33
0.0
 40
0.0
 40
0.0
 40
0.0
 40
0.0
 40
1.0
 40
1.0
 40
1.0
 40
2.0
 40
2.0
 40
2.0
 40
3.0
 40
3.0
 40
3.0
 40
4.0
 40
4.0
 40
4.0
 40
5.0
 40
5.0
 40
5.0
 40
5.0
 10
124.2177683114709
 20
819.6280022280953
 30
0.0
 10
124.2177683114709
 20
819.6280022280953
 30
0.0
 10
123.8140239786037
 20
819.6280022280953
 30
0.0
 10
123.8140239786037
 20
819.6280022280953
 30
0.0
 10
123.8140239786037
 20
819.6280022280953
 30
0.0
 10
123.8140239786037
 20
820.4633725616153
 30
0.0
 10
123.8140239786037
 20
820.4633725616153
 30
0.0
 10
123.8140239786037
 20
820.4633725616153
 30
0.0
 10
124.3299936121135
 20
820.4633725616153
 30
0.0
 10
124.3299936121135
 20
820.4633725616153
 30
0.0
 10
124.5995375713209
 20
820.4633725616153
 30
0.0
 10
124.9111898351783
 20
820.4201845568339
 30
0.0
 10
124.9111898351783
 20
820.0653442881979
 30
0.0
 10
124.9111898351783
 20
819.6490881363067
 30
0.0
 10
124.5697505503773
 20
819.6280022280953
 30
0.0
 10
124.2177683114709
 20
819.6280022280953
 30
0.0
  0
POLYLINE
  5
5A
330
41
100
AcDbEntity
  8
Layer 1
 62
    40
370
    13
100
AcDb2dPolyline
 66
     1
 10
0.0
 20
0.0
 30
0.0
  0
VERTEX
  5
5B
330
5A
100
AcDbEntity
  8
Layer 1
 62
    40
370
    13
100
AcDbVertex
100
AcDb2dVertex
 10
36.37613581532992
 20
799.7381666136143
 30
0.0
  0
VERTEX
  5
5C
330
5A
100
AcDbEntity
  8
Layer 1
 62
    40
370
    13
100
AcDbVertex
100
AcDb2dVertex
 10
28.83505816276721
 20
821.2871539535381
 30
0.0
  0
VERTEX
  5
5D
330
5A
100
AcDbEntity
  8
Layer 1
 62
    40
370
    13
100
AcDbVertex
100
AcDb2dVertex
 10
21.49926631241421
 20
821.2871539535381
 30
0.0
  0
VERTEX
  5
5E
330
5A
100
AcDbEntity
  8
Layer 1
 62
    40
370
    13
100
AcDbVertex
100
AcDb2dVertex
 10
21.49926631241421
 20
792.893396802363
 30
0.0
  0
VERTEX
  5
5F
330
5A
100
AcDbEntity
  8
Layer 1
 62
    40
370
    13
100
AcDbVertex
100
AcDb2dVertex
 10
26.75299066949033
 20
792.893396802363
 30
0.0
  0
VERTEX
  5
60
330
5A
100
AcDbEntity
  8
Layer 1
 62
    40
370
    13
100
AcDbVertex
100
AcDb2dVertex
 10
26.75299066949033
 20
814.347438727074
 30
0.0
  0
VERTEX
  5
61
330
5A
100
AcDbEntity
  8
Layer 1
 62
    40
370
    13
100
AcDbVertex
100
AcDb2dVertex
 10
34.26140522606264
 20
792.893396802363
 30
0.0
  0
VERTEX
  5
62
330
5A
100
AcDbEntity
  8
Layer 1
 62
    40
370
    13
100
AcDbVertex
100
AcDb2dVertex
 10
38.4620666855558
 20
792.893396802363
 30
0.0
  0
VERTEX
  5
63
330
5A
100
AcDbEntity
  8
Layer 1
 62
    40
370
    13
100
AcDbVertex
100
AcDb2dVertex
 10
45.95133996544975
 20
814.4184063274303
 30
0.0
  0
VERTEX
  5
64
330
5A
100
AcDbEntity
  8
Layer 1
 62
    40
370
    13
100
AcDbVertex
100
AcDb2dVertex
 10
45.95133996544975
 20
792.893396802363
 30
0.0
  0
VERTEX
  5
65
330
5A
100
AcDbEntity
  8
Layer 1
 62
    40
370
    13
100
AcDbVertex
100
AcDb2dVertex
 10
51.20500578650751
 20
792.893396802363
 30
0.0
  0
VERTEX
  5
66
330
5A
100
AcDbEntity
  8
Layer 1
 62
    40
370
    13
100
AcDbVertex
100
AcDb2dVertex
 10
51.20500578650751
 20
821.2871539535381
 30
0.0
  0
VERTEX
  5
67
330
5A
100
AcDbEntity
  8
Layer 1
 62
    40
370
    13
100
AcDbVertex
100
AcDb2dVertex
 10
43.87015051238459
 20
821.2871539535381
 30
0.0
  0
VERTEX
  5
68
330
5A
100
AcDbEntity
  8
Layer 1
 62
    40
370
    13
100
AcDbVertex
100
AcDb2dVertex
 10
36.37613581532992
 20
799.7381666136143
 30
0.0
  0
SEQEND
  5
69
330
5A
100
AcDbEntity
  8
Layer 1
 62
    40
370
    13
  0
POLYLINE
  5
6A
330
41
100
AcDbEntity
  8
Layer 1
 62
    40
370
    13
100
AcDb2dPolyline
 66
     1
 10
0.0
 20
0.0
 30
0.0
  0
VERTEX
  5
6B
330
6A
100
AcDbEntity
  8
Layer 1
 62
    40
370
    13
100
AcDbVertex
100
AcDb2dVertex
 10
55.69624002107607
 20
816.5992972468831
 30
0.0
  0
VERTEX
  5
6C
330
6A
100
AcDbEntity
  8
Layer 1
 62
    40
370
    13
100
AcDbVertex
100
AcDb2dVertex
 10
60.82335097917477
 20
816.5992972468831
 30
0.0
  0
VERTEX
  5
6D
330
6A
100
AcDbEntity
  8
Layer 1
 62
    40
370
    13
100
AcDbVertex
100
AcDb2dVertex
 10
60.82335097917477
 20
821.2871539535381
 30
0.0
  0
VERTEX
  5
6E
330
6A
100
AcDbEntity
  8
Layer 1
 62
    40
370
    13
100
AcDbVertex
100
AcDb2dVertex
 10
55.69624002107607
 20
821.2871539535381
 30
0.0
  0
VERTEX
  5
6F
330
6A
100
AcDbEntity
  8
Layer 1
 62
    40
370
    13
100
AcDbVertex
100
AcDb2dVertex
 10
55.69624002107607
 20
816.5992972468831
 30
0.0
  0
SEQEND
  5
70
330
6A
100
AcDbEntity
  8
Layer 1
 62
    40
370
    13
  0
POLYLINE
  5
71
330
41
100
AcDbEntity
  8
Layer 1
 62
    40
370
    13
100
AcDb2dPolyline
 66
     1
 10
0.0
 20
0.0
 30
0.0
  0
VERTEX
  5
72
330
71
100
AcDbEntity
  8
Layer 1
 62
    40
370
    13
100
AcDbVertex
100
AcDb2dVertex
 10
55.69624002107607
 20
792.893396802363
 30
0.0
  0
VERTEX
  5
73
330
71
100
AcDbEntity
  8
Layer 1
 62
    40
370
    13
100
AcDbVertex
100
AcDb2dVertex
 10
60.82335097917477
 20
792.893396802363
 30
0.0
  0
VERTEX
  5
74
330
71
100
AcDbEntity
  8
Layer 1
 62
    40
370
    13
100
AcDbVertex
100
AcDb2dVertex
 10
60.82335097917477
 20
814.1594576340824
 30
0.0
  0
VERTEX
  5
75
330
71
100
AcDbEntity
  8
Layer 1
 62
    40
370
    13
100
AcDbVertex
100
AcDb2dVertex
 10
55.69624002107607
 20
814.1594576340824
 30
0.0
  0
VERTEX
  5
76
330
71
100
AcDbEntity
  8
Layer 1
 62
    40
370
    13
100
AcDbVertex
100
AcDb2dVertex
 10
55.69624002107607
 20
792.893396802363
 30
0.0
  0
SEQEND
  5
77
330
71
100
AcDbEntity
  8
Layer 1
 62
    40
370
    13
  0
POLYLINE
  5
78
330
41
100
AcDbEntity
  8
Layer 1
 62
    40
370
    13
100
AcDb2dPolyline
 66
     1
 10
0.0
 20
0.0
 30
0.0
  0
VERTEX
  5
79
330
78
100
AcDbEntity
  8
Layer 1
 62
    40
370
    13
100
AcDbVertex
100
AcDb2dVertex
 10
78.93609135359242
 20
821.2871539535381
 30
0.0
  0
VERTEX
  5
7A
330
78
100
AcDbEntity
  8
Layer 1
 62
    40
370
    13
100
AcDbVertex
100
AcDb2dVertex
 10
63.05123168412419
 20
821.2871539535381
 30
0.0
  0
VERTEX
  5
7B
330
78
100
AcDbEntity
  8
Layer 1
 62
    40
370
    13
100
AcDbVertex
100
AcDb2dVertex
 10
63.05123168412419
 20
816.4093990994296
 30
0.0
  0
VERTEX
  5
7C
330
78
100
AcDbEntity
  8
Layer 1
 62
    40
370
    13
100
AcDbVertex
100
AcDb2dVertex
 10
68.36536520796788
 20
816.4093990994296
 30
0.0
  0
VERTEX
  5
7D
330
78
100
AcDbEntity
  8
Layer 1
 62
    40
370
    13
100
AcDbVertex
100
AcDb2dVertex
 10
68.36536520796788
 20
792.893396802363
 30
0.0
  0
VERTEX
  5
7E
330
78
100
AcDbEntity
  8
Layer 1
 62
    40
370
    13
100
AcDbVertex
100
AcDb2dVertex
 10
73.61908956504656
 20
792.893396802363
 30
0.0
  0
VERTEX
  5
7F
330
78
100
AcDbEntity
  8
Layer 1
 62
    40
370
    13
100
AcDbVertex
100
AcDb2dVertex
 10
73.61908956504656
 20
816.4093990994296
 30
0.0
  0
VERTEX
  5
80
330
78
100
AcDbEntity
  8
Layer 1
 62
    40
370
    13
100
AcDbVertex
100
AcDb2dVertex
 10
78.93609135359242
 20
816.4093990994296
 30
0.0
  0
VERTEX
  5
81
330
78
100
AcDbEntity
  8
Layer 1
 62
    40
370
    13
100
AcDbVertex
100
AcDb2dVertex
 10
78.93609135359242
 20
821.2871539535381
 30
0.0
  0
SEQEND
  5
82
330
78
100
AcDbEntity
  8
Layer 1
 62
    40
370
    13
  0
ENDBLK
  5
44
330
41
100
AcDbEntity
  8
0
100
AcDbBlockEnd
  0
BLOCK
  5
85
330
83
100
AcDbEntity
  8
0
100
AcDbBlockBegin
  2
block 3
 70
     0
 10
0.0
 20
0.0
 30
0.0
  3
block 3
  1

  0
SPLINE
  5
87
330
83
100
AcDbEntity
  8
Layer 1
 62
    40
370
    13
100
AcDbSpline
210
0.0
220
0.0
230
1.0
 70
    11
 71
     3
 72
    26
 73
    22
 74
     0
 42
0.0000000001
 43
0.0000000001
 12
1.0
 22
0.0
 32
0.0
 13
1.0
 23
0.0
 33
0.0
 40
0.0
 40
0.0
 40
0.0
 40
0.0
 40
1.0
 40
1.0
 40
1.0
 40
2.0
 40
2.0
 40
2.0
 40
3.0
 40
3.0
 40
3.0
 40
4.0
 40
4.0
 40
4.0
 40
5.0
 40
5.0
 40
5.0
 40
6.0
 40
6.0
 40
6.0
 40
7.0
 40
7.0
 40
7.0
 40
7.0
 10
32.93718208453717
 20
781.4177087040829
 30
0.0
 10
38.55646670458726
 20
781.4177087040829
 30
0.0
 10
41.80646877183318
 20
778.2477720472377
 30
0.0
 10
41.80646877183318
 20
773.3915598079848
 30
0.0
 10
41.80646877183318
 20
770.2216231511433
 30
0.0
 10
39.71986613740567
 20
768.2134519391518
 30
0.0
 10
38.2754207741828
 20
767.491229257539
 30
0.0
 10
40.04176176699183
 20
766.6889411655252
 30
0.0
 10
42.24764552304641
 20
764.8833844614979
 30
0.0
 10
42.24764552304641
 20
761.0712905334444
 30
0.0
 10
42.24764552304641
 20
755.7314178558302
 30
0.0
 10
38.55646670458726
 20
752.8425271293818
 30
0.0
 10
33.45842424615093
 20
752.8425271293818
 30
0.0
 10
33.45842424615093
 20
752.8425271293818
 30
0.0
 10
21.49926631241421
 20
752.8425271293818
 30
0.0
 10
21.49926631241421
 20
752.8425271293818
 30
0.0
 10
21.49926631241421
 20
752.8425271293818
 30
0.0
 10
21.49926631241421
 20
781.4177087040829
 30
0.0
 10
21.49926631241421
 20
781.4177087040829
 30
0.0
 10
21.49926631241421
 20
781.4177087040829
 30
0.0
 10
32.93718208453717
 20
781.4177087040829
 30
0.0
 10
32.93718208453717
 20
781.4177087040829
 30
0.0
  0
SPLINE
  5
88
330
83
100
AcDbEntity
  8
Layer 1
 62
    40
370
    13
100
AcDbSpline
210
0.0
220
0.0
230
1.0
 70
    11
 71
     3
 72
    20
 73
    16
 74
     0
 42
0.0000000001
 43
0.0000000001
 12
1.0
 22
0.0
 32
0.0
 13
1.0
 23
0.0
 33
0.0
 40
0.0
 40
0.0
 40
0.0
 40
0.0
 40
1.0
 40
1.0
 40
1.0
 40
2.0
 40
2.0
 40
2.0
 40
3.0
 40
3.0
 40
3.0
 40
4.0
 40
4.0
 40
4.0
 40
5.0
 40
5.0
 40
5.0
 40
5.0
 10
27.07770123327362
 20
776.4422153432108
 30
0.0
 10
27.07770123327362
 20
776.4422153432108
 30
0.0
 10
27.07770123327362
 20
769.8196621111521
 30
0.0
 10
27.07770123327362
 20
769.8196621111521
 30
0.0
 10
27.07770123327362
 20
769.8196621111521
 30
0.0
 10
32.57607074373249
 20
769.8196621111521
 30
0.0
 10
32.57607074373249
 20
769.8196621111521
 30
0.0
 10
34.94371930855999
 20
769.8196621111521
 30
0.0
 10
36.22803385097378
 20
771.1431923647834
 30
0.0
 10
36.22803385097378
 20
773.151363576771
 30
0.0
 10
36.22803385097378
 20
775.1170511016109
 30
0.0
 10
34.94371930855999
 20
776.4422153432108
 30
0.0
 10
32.57607074373249
 20
776.4422153432108
 30
0.0
 10
32.57607074373249
 20
776.4422153432108
 30
0.0
 10
27.07770123327362
 20
776.4422153432108
 30
0.0
 10
27.07770123327362
 20
776.4422153432108
 30
0.0
  0
SPLINE
  5
89
330
83
100
AcDbEntity
  8
Layer 1
 62
    40
370
    13
100
AcDbSpline
210
0.0
220
0.0
230
1.0
 70
    11
 71
     3
 72
    20
 73
    16
 74
     0
 42
0.0000000001
 43
0.0000000001
 12
1.0
 22
0.0
 32
0.0
 13
1.0
 23
0.0
 33
0.0
 40
0.0
 40
0.0
 40
0.0
 40
0.0
 40
1.0
 40
1.0
 40
1.0
 40
2.0
 40
2.0
 40
2.0
 40
3.0
 40
3.0
 40
3.0
 40
4.0
 40
4.0
 40
4.0
 40
5.0
 40
5.0
 40
5.0
 40
5.0
 10
27.07770123327362
 20
764.8425347623114
 30
0.0
 10
27.07770123327362
 20
764.8425347623114
 30
0.0
 10
27.07770123327362
 20
757.8196544782228
 30
0.0
 10
27.07770123327362
 20
757.8196544782228
 30
0.0
 10
27.07770123327362
 20
757.8196544782228
 30
0.0
 10
32.93718208453717
 20
757.8196544782228
 30
0.0
 10
32.93718208453717
 20
757.8196544782228
 30
0.0
 10
35.42574575895556
 20
757.8196544782228
 30
0.0
 10
36.66921060218668
 20
759.345799239818
 30
0.0
 10
36.66921060218668
 20
761.3523364638444
 30
0.0
 10
36.66921060218668
 20
763.3163900007158
 30
0.0
 10
35.42574575895556
 20
764.8425347623114
 30
0.0
 10
32.93718208453717
 20
764.8425347623114
 30
0.0
 10
32.93718208453717
 20
764.8425347623114
 30
0.0
 10
27.07770123327362
 20
764.8425347623114
 30
0.0
 10
27.07770123327362
 20
764.8425347623114
 30
0.0
  0
SPLINE
  5
8A
330
83
100
AcDbEntity
  8
Layer 1
 62
    40
370
    13
100
AcDbSpline
210
0.0
220
0.0
230
1.0
 70
    11
 71
     3
 72
    29
 73
    25
 74
     0
 42
0.0000000001
 43
0.0000000001
 12
1.0
 22
0.0
 32
0.0
 13
1.0
 23
0.0
 33
0.0
 40
0.0
 40
0.0
 40
0.0
 40
0.0
 40
1.0
 40
1.0
 40
1.0
 40
2.0
 40
2.0
 40
2.0
 40
3.0
 40
3.0
 40
3.0
 40
4.0
 40
4.0
 40
4.0
 40
5.0
 40
5.0
 40
5.0
 40
6.0
 40
6.0
 40
6.0
 40
7.0
 40
7.0
 40
7.0
 40
8.0
 40
8.0
 40
8.0
 40
8.0
 10
64.97968612615728
 20
778.6497330872328
 30
0.0
 10
67.82936114138418
 20
775.8392737832202
 30
0.0
 10
67.86857685260686
 20
772.5892717159743
 30
0.0
 10
67.86857685260686
 20
767.1301179167342
 30
0.0
 10
67.86857685260686
 20
761.6725981054664
 30
0.0
 10
67.82936114138418
 20
758.4209620502412
 30
0.0
 10
64.97968612615728
 20
755.6105027462393
 30
0.0
 10
63.01236461334847
 20
753.6856649205862
 30
0.0
 10
60.60386634933509
 20
752.6006969101996
 30
0.0
 10
57.31301458289848
 20
752.6006969101996
 30
0.0
 10
54.02216281646572
 20
752.6006969101996
 30
0.0
 10
51.61366455244787
 20
753.6856649205862
 30
0.0
 10
49.64797702760707
 20
755.6105027462393
 30
0.0
 10
46.79830201238465
 20
758.4601777614662
 30
0.0
 10
46.75745231319781
 20
761.6725981054664
 30
0.0
 10
46.75745231319781
 20
767.1301179167342
 30
0.0
 10
46.75745231319781
 20
772.5892717159743
 30
0.0
 10
46.79830201238465
 20
775.8000580720023
 30
0.0
 10
49.64797702760707
 20
778.6497330872328
 30
0.0
 10
51.61366455244787
 20
780.5762049008513
 30
0.0
 10
54.02216281646572
 20
781.6595389232652
 30
0.0
 10
57.31301458289848
 20
781.6595389232652
 30
0.0
 10
60.60386634933509
 20
781.6595389232652
 30
0.0
 10
63.01236461334847
 20
780.5762049008513
 30
0.0
 10
64.97968612615728
 20
778.6497330872328
 30
0.0
  0
SPLINE
  5
8B
330
83
100
AcDbEntity
  8
Layer 1
 62
    40
370
    13
100
AcDbSpline
210
0.0
220
0.0
230
1.0
 70
    11
 71
     3
 72
    29
 73
    25
 74
     0
 42
0.0000000001
 43
0.0000000001
 12
1.0
 22
0.0
 32
0.0
 13
1.0
 23
0.0
 33
0.0
 40
0.0
 40
0.0
 40
0.0
 40
0.0
 40
1.0
 40
1.0
 40
1.0
 40
2.0
 40
2.0
 40
2.0
 40
3.0
 40
3.0
 40
3.0
 40
4.0
 40
4.0
 40
4.0
 40
5.0
 40
5.0
 40
5.0
 40
6.0
 40
6.0
 40
6.0
 40
7.0
 40
7.0
 40
7.0
 40
8.0
 40
8.0
 40
8.0
 40
8.0
 10
53.74111688606158
 20
775.1579008007942
 30
0.0
 10
52.65778286364755
 20
773.9536516687887
 30
0.0
 10
52.3358872340617
 20
772.5892717159743
 30
0.0
 10
52.3358872340617
 20
767.1301179167342
 30
0.0
 10
52.3358872340617
 20
761.6725981054664
 30
0.0
 10
52.65778286364755
 20
760.3490678518313
 30
0.0
 10
53.74111688606158
 20
759.143184731854
 30
0.0
 10
54.5434049780798
 20
758.221615518214
 30
0.0
 10
55.78850380927059
 20
757.5778242590407
 30
0.0
 10
57.31301458289848
 20
757.5778242590407
 30
0.0
 10
58.83915934449342
 20
757.5778242590407
 30
0.0
 10
60.0826241877207
 20
758.221615518214
 30
0.0
 10
60.88491227973475
 20
759.143184731854
 30
0.0
 10
61.96824630215294
 20
760.3490678518313
 30
0.0
 10
62.29014193173719
 20
761.6725981054664
 30
0.0
 10
62.29014193173719
 20
767.1301179167342
 30
0.0
 10
62.29014193173719
 20
772.5892717159743
 30
0.0
 10
61.96824630215294
 20
773.9536516687887
 30
0.0
 10
60.88491227973475
 20
775.1579008007942
 30
0.0
 10
60.0826241877207
 20
776.0811040024058
 30
0.0
 10
58.83915934449342
 20
776.6824115744247
 30
0.0
 10
57.31301458289848
 20
776.6824115744247
 30
0.0
 10
55.78850380927059
 20
776.6824115744247
 30
0.0
 10
54.5434049780798
 20
776.0811040024058
 30
0.0
 10
53.74111688606158
 20
775.1579008007942
 30
0.0
  0
POLYLINE
  5
8C
330
83
100
AcDbEntity
  8
Layer 1
 62
    40
370
    13
100
AcDb2dPolyline
 66
     1
 10
0.0
 20
0.0
 30
0.0
  0
VERTEX
  5
8D
330
8C
100
AcDbEntity
  8
Layer 1
 62
    40
370
    13
100
AcDbVertex
100
AcDb2dVertex
 10
97.70356315020437
 20
752.8425271293818
 30
0.0
  0
VERTEX
  5
8E
330
8C
100
AcDbEntity
  8
Layer 1
 62
    40
370
    13
100
AcDbVertex
100
AcDb2dVertex
 10
93.00748173176372
 20
752.8425271293818
 30
0.0
  0
VERTEX
  5
8F
330
8C
100
AcDbEntity
  8
Layer 1
 62
    40
370
    13
100
AcDbVertex
100
AcDb2dVertex
 10
87.74930845252247
 20
770.1399237527702
 30
0.0
  0
VERTEX
  5
90
330
8C
100
AcDbEntity
  8
Layer 1
 62
    40
370
    13
100
AcDbVertex
100
AcDb2dVertex
 10
82.53198487246775
 20
752.8425271293818
 30
0.0
  0
VERTEX
  5
91
330
8C
100
AcDbEntity
  8
Layer 1
 62
    40
370
    13
100
AcDbVertex
100
AcDb2dVertex
 10
77.87675315321296
 20
752.8425271293818
 30
0.0
  0
VERTEX
  5
92
330
8C
100
AcDbEntity
  8
Layer 1
 62
    40
370
    13
100
AcDbVertex
100
AcDb2dVertex
 10
70.21008160995417
 20
781.4177087040829
 30
0.0
  0
VERTEX
  5
93
330
8C
100
AcDbEntity
  8
Layer 1
 62
    40
370
    13
100
AcDbVertex
100
AcDb2dVertex
 10
76.03034674999729
 20
781.4177087040829
 30
0.0
  0
VERTEX
  5
94
330
8C
100
AcDbEntity
  8
Layer 1
 62
    40
370
    13
100
AcDbVertex
100
AcDb2dVertex
 10
80.44538223804055
 20
763.4373051103067
 30
0.0
  0
VERTEX
  5
95
330
8C
100
AcDbEntity
  8
Layer 1
 62
    40
370
    13
100
AcDbVertex
100
AcDb2dVertex
 10
85.70192152931153
 20
781.4177087040829
 30
0.0
  0
VERTEX
  5
96
330
8C
100
AcDbEntity
  8
Layer 1
 62
    40
370
    13
100
AcDbVertex
100
AcDb2dVertex
 10
89.83591108695032
 20
781.4177087040829
 30
0.0
  0
VERTEX
  5
97
330
8C
100
AcDbEntity
  8
Layer 1
 62
    40
370
    13
100
AcDbVertex
100
AcDb2dVertex
 10
95.09408436619573
 20
763.4373051103067
 30
0.0
  0
VERTEX
  5
98
330
8C
100
AcDbEntity
  8
Layer 1
 62
    40
370
    13
100
AcDbVertex
100
AcDb2dVertex
 10
99.50911985423609
 20
781.4177087040829
 30
0.0
  0
VERTEX
  5
99
330
8C
100
AcDbEntity
  8
Layer 1
 62
    40
370
    13
100
AcDbVertex
100
AcDb2dVertex
 10
105.3293849942773
 20
781.4177087040829
 30
0.0
  0
VERTEX
  5
9A
330
8C
100
AcDbEntity
  8
Layer 1
 62
    40
370
    13
100
AcDbVertex
100
AcDb2dVertex
 10
97.70356315020437
 20
752.8425271293818
 30
0.0
  0
SEQEND
  5
9B
330
8C
100
AcDbEntity
  8
Layer 1
 62
    40
370
    13
  0
POLYLINE
  5
9C
330
83
100
AcDbEntity
  8
Layer 1
 62
    40
370
    13
100
AcDb2dPolyline
 66
     1
 10
0.0
 20
0.0
 30
0.0
  0
VERTEX
  5
9D
330
9C
100
AcDbEntity
  8
Layer 1
 62
    40
370
    13
100
AcDbVertex
100
AcDb2dVertex
 10
134.80652792701
 20
752.8425271293818
 30
0.0
  0
VERTEX
  5
9E
330
9C
100
AcDbEntity
  8
Layer 1
 62
    40
370
    13
100
AcDbVertex
100
AcDb2dVertex
 10
129.2280930061506
 20
752.8425271293818
 30
0.0
  0
VERTEX
  5
9F
330
9C
100
AcDbEntity
  8
Layer 1
 62
    40
370
    13
100
AcDbVertex
100
AcDb2dVertex
 10
129.2280930061506
 20
769.4585507703474
 30
0.0
  0
VERTEX
  5
A0
330
9C
100
AcDbEntity
  8
Layer 1
 62
    40
370
    13
100
AcDbVertex
100
AcDb2dVertex
 10
123.7705731948776
 20
759.3033155526703
 30
0.0
  0
VERTEX
  5
A1
330
9C
100
AcDbEntity
  8
Layer 1
 62
    40
370
    13
100
AcDbVertex
100
AcDb2dVertex
 10
119.9976949780457
 20
759.3033155526703
 30
0.0
  0
VERTEX
  5
A2
330
9C
100
AcDbEntity
  8
Layer 1
 62
    40
370
    13
100
AcDbVertex
100
AcDb2dVertex
 10
114.4993254675865
 20
769.4585507703474
 30
0.0
  0
VERTEX
  5
A3
330
9C
100
AcDbEntity
  8
Layer 1
 62
    40
370
    13
100
AcDbVertex
100
AcDb2dVertex
 10
114.4993254675865
 20
752.8425271293818
 30
0.0
  0
VERTEX
  5
A4
330
9C
100
AcDbEntity
  8
Layer 1
 62
    40
370
    13
100
AcDbVertex
100
AcDb2dVertex
 10
108.920890546723
 20
752.8425271293818
 30
0.0
  0
VERTEX
  5
A5
330
9C
100
AcDbEntity
  8
Layer 1
 62
    40
370
    13
100
AcDbVertex
100
AcDb2dVertex
 10
108.920890546723
 20
781.4177087040829
 30
0.0
  0
VERTEX
  5
A6
330
9C
100
AcDbEntity
  8
Layer 1
 62
    40
370
    13
100
AcDbVertex
100
AcDb2dVertex
 10
114.4192600571818
 20
781.4177087040829
 30
0.0
  0
VERTEX
  5
A7
330
9C
100
AcDbEntity
  8
Layer 1
 62
    40
370
    13
100
AcDbVertex
100
AcDb2dVertex
 10
121.8833170924777
 20
766.6088757551205
 30
0.0
  0
VERTEX
  5
A8
330
9C
100
AcDbEntity
  8
Layer 1
 62
    40
370
    13
100
AcDbVertex
100
AcDb2dVertex
 10
129.308158416555
 20
781.4177087040829
 30
0.0
  0
VERTEX
  5
A9
330
9C
100
AcDbEntity
  8
Layer 1
 62
    40
370
    13
100
AcDbVertex
100
AcDb2dVertex
 10
134.80652792701
 20
781.4177087040829
 30
0.0
  0
VERTEX
  5
AA
330
9C
100
AcDbEntity
  8
Layer 1
 62
    40
370
    13
100
AcDbVertex
100
AcDb2dVertex
 10
134.80652792701
 20
752.8425271293818
 30
0.0
  0
SEQEND
  5
AB
330
9C
100
AcDbEntity
  8
Layer 1
 62
    40
370
    13
  0
POLYLINE
  5
AC
330
83
100
AcDbEntity
  8
Layer 1
 62
    40
370
    13
100
AcDb2dPolyline
 66
     1
 10
0.0
 20
0.0
 30
0.0
  0
VERTEX
  5
AD
330
AC
100
AcDbEntity
  8
Layer 1
 62
    40
370
    13
100
AcDbVertex
100
AcDb2dVertex
 10
163.5614481781308
 20
752.8425271293818
 30
0.0
  0
VERTEX
  5
AE
330
AC
100
AcDbEntity
  8
Layer 1
 62
    40
370
    13
100
AcDbVertex
100
AcDb2dVertex
 10
157.7019673268672
 20
752.8425271293818
 30
0.0
  0
VERTEX
  5
AF
330
AC
100
AcDbEntity
  8
Layer 1
 62
    40
370
    13
100
AcDbVertex
100
AcDb2dVertex
 10
156.0156917444632
 20
757.8980859006658
 30
0.0
  0
VERTEX
  5
B0
330
AC
100
AcDbEntity
  8
Layer 1
 62
    40
370
    13
100
AcDbVertex
100
AcDb2dVertex
 10
145.9029402139396
 20
757.8980859006658
 30
0.0
  0
VERTEX
  5
B1
330
AC
100
AcDbEntity
  8
Layer 1
 62
    40
370
    13
100
AcDbVertex
100
AcDb2dVertex
 10
144.1758149323449
 20
752.8425271293818
 30
0.0
  0
VERTEX
  5
B2
330
AC
100
AcDbEntity
  8
Layer 1
 62
    40
370
    13
100
AcDbVertex
100
AcDb2dVertex
 10
138.316334081083
 20
752.8425271293818
 30
0.0
  0
VERTEX
  5
B3
330
AC
100
AcDbEntity
  8
Layer 1
 62
    40
370
    13
100
AcDbVertex
100
AcDb2dVertex
 10
148.7509812411988
 20
781.4177087040829
 30
0.0
  0
VERTEX
  5
B4
330
AC
100
AcDbEntity
  8
Layer 1
 62
    40
370
    13
100
AcDbVertex
100
AcDb2dVertex
 10
153.1268010180172
 20
781.4177087040829
 30
0.0
  0
VERTEX
  5
B5
330
AC
100
AcDbEntity
  8
Layer 1
 62
    40
370
    13
100
AcDbVertex
100
AcDb2dVertex
 10
163.5614481781308
 20
752.8425271293818
 30
0.0
  0
SEQEND
  5
B6
330
AC
100
AcDbEntity
  8
Layer 1
 62
    40
370
    13
  0
POLYLINE
  5
B7
330
83
100
AcDbEntity
  8
Layer 1
 62
    40
370
    13
100
AcDb2dPolyline
 66
     1
 10
0.0
 20
0.0
 30
0.0
  0
VERTEX
  5
B8
330
B7
100
AcDbEntity
  8
Layer 1
 62
    40
370
    13
100
AcDbVertex
100
AcDb2dVertex
 10
147.4274509875627
 20
762.5941673191027
 30
0.0
  0
VERTEX
  5
B9
330
B7
100
AcDbEntity
  8
Layer 1
 62
    40
370
    13
100
AcDbVertex
100
AcDb2dVertex
 10
154.4503312716495
 20
762.5941673191027
 30
0.0
  0
VERTEX
  5
BA
330
B7
100
AcDbEntity
  8
Layer 1
 62
    40
370
    13
100
AcDbVertex
100
AcDb2dVertex
 10
150.9584989852176
 20
772.950383056779
 30
0.0
  0
VERTEX
  5
BB
330
B7
100
AcDbEntity
  8
Layer 1
 62
    40
370
    13
100
AcDbVertex
100
AcDb2dVertex
 10
147.4274509875627
 20
762.5941673191027
 30
0.0
  0
SEQEND
  5
BC
330
B7
100
AcDbEntity
  8
Layer 1
 62
    40
370
    13
  0
SPLINE
  5
BD
330
83
100
AcDbEntity
  8
Layer 1
 62
    40
370
    13
100
AcDbSpline
210
0.0
220
0.0
230
1.0
 70
    11
 71
     3
 72
    47
 73
    43
 74
     0
 42
0.0000000001
 43
0.0000000001
 12
1.0
 22
0.0
 32
0.0
 13
1.0
 23
0.0
 33
0.0
 40
0.0
 40
0.0
 40
0.0
 40
0.0
 40
1.0
 40
1.0
 40
1.0
 40
2.0
 40
2.0
 40
2.0
 40
3.0
 40
3.0
 40
3.0
 40
4.0
 40
4.0
 40
4.0
 40
5.0
 40
5.0
 40
5.0
 40
6.0
 40
6.0
 40
6.0
 40
7.0
 40
7.0
 40
7.0
 40
8.0
 40
8.0
 40
8.0
 40
9.0
 40
9.0
 40
9.0
 40
10.0
 40
10.0
 40
10.0
 40
11.0
 40
11.0
 40
11.0
 40
12.0
 40
12.0
 40
12.0
 40
13.0
 40
13.0
 40
13.0
 40
14.0
 40
14.0
 40
14.0
 40
14.0
 10
186.7330315444872
 20
772.6284874271925
 30
0.0
 10
186.7330315444872
 20
772.6284874271925
 30
0.0
 10
181.0745312132231
 20
772.6284874271925
 30
0.0
 10
181.0745312132231
 20
772.6284874271925
 30
0.0
 10
180.512439352419
 20
774.9569202808018
 30
0.0
 10
179.0271442900099
 20
776.6824115744247
 30
0.0
 10
176.2575346851874
 20
776.6824115744247
 30
0.0
 10
174.7330239115601
 20
776.6824115744247
 30
0.0
 10
173.4879250803645
 20
776.1203197136241
 30
0.0
 10
172.6856369883466
 20
775.1971165120156
 30
0.0
 10
171.6415186771508
 20
773.9928673800065
 30
0.0
 10
171.2804073363464
 20
772.5892717159743
 30
0.0
 10
171.2804073363464
 20
767.1301179167342
 30
0.0
 10
171.2804073363464
 20
761.6725981054664
 30
0.0
 10
171.6415186771508
 20
760.267368453462
 30
0.0
 10
172.6856369883466
 20
759.064753309418
 30
0.0
 10
173.4879250803645
 20
758.1399161198409
 30
0.0
 10
174.7330239115601
 20
757.5778242590407
 30
0.0
 10
176.2575346851874
 20
757.5778242590407
 30
0.0
 10
179.0271442900099
 20
757.5778242590407
 30
0.0
 10
180.512439352419
 20
759.3033155526703
 30
0.0
 10
181.0745312132231
 20
761.6333823942447
 30
0.0
 10
181.0745312132231
 20
761.6333823942447
 30
0.0
 10
186.7330315444872
 20
761.6333823942447
 30
0.0
 10
186.7330315444872
 20
761.6333823942447
 30
0.0
 10
185.7297629324737
 20
755.6529864333909
 30
0.0
 10
181.5957733748372
 20
752.6006969101996
 30
0.0
 10
176.2575346851874
 20
752.6006969101996
 30
0.0
 10
172.9666829187511
 20
752.6006969101996
 30
0.0
 10
170.5581846547371
 20
753.6856649205862
 30
0.0
 10
168.5924971298963
 20
755.6105027462393
 30
0.0
 10
165.7428221146732
 20
758.4601777614662
 30
0.0
 10
165.701972415487
 20
761.6725981054664
 30
0.0
 10
165.701972415487
 20
767.1301179167342
 30
0.0
 10
165.701972415487
 20
772.5892717159743
 30
0.0
 10
165.7428221146732
 20
775.8000580720023
 30
0.0
 10
168.5924971298963
 20
778.6497330872328
 30
0.0
 10
170.5581846547371
 20
780.5762049008513
 30
0.0
 10
172.9666829187511
 20
781.6595389232652
 30
0.0
 10
176.2575346851874
 20
781.6595389232652
 30
0.0
 10
181.5957733748372
 20
781.6595389232652
 30
0.0
 10
185.7297629324737
 20
778.6088833880463
 30
0.0
 10
186.7330315444872
 20
772.6284874271925
 30
0.0
  0
SPLINE
  5
BE
330
83
100
AcDbEntity
  8
Layer 1
 62
    40
370
    13
100
AcDbSpline
210
0.0
220
0.0
230
1.0
 70
    11
 71
     3
 72
    17
 73
    13
 74
     0
 42
0.0000000001
 43
0.0000000001
 12
1.0
 22
0.0
 32
0.0
 13
1.0
 23
0.0
 33
0.0
 40
0.0
 40
0.0
 40
0.0
 40
0.0
 40
1.0
 40
1.0
 40
1.0
 40
2.0
 40
2.0
 40
2.0
 40
3.0
 40
3.0
 40
3.0
 40
4.0
 40
4.0
 40
4.0
 40
4.0
 10
188.9439371540986
 20
779.7264262141342
 30
0.0
 10
188.9439371540986
 20
780.9601349686644
 30
0.0
 10
189.9154836106307
 20
781.959097258646
 30
0.0
 10
191.1139331750788
 20
781.959097258646
 30
0.0
 10
192.3123827395262
 20
781.959097258646
 30
0.0
 10
193.2839291960628
 20
780.9601349686644
 30
0.0
 10
193.2839291960628
 20
779.7264262141342
 30
0.0
 10
193.2839291960628
 20
778.4933623674807
 30
0.0
 10
192.3123827395262
 20
777.4944000774849
 30
0.0
 10
191.1139331750788
 20
777.4944000774849
 30
0.0
 10
189.9154836106307
 20
777.4944000774849
 30
0.0
 10
188.9439371540986
 20
778.4933623674807
 30
0.0
 10
188.9439371540986
 20
779.7264262141342
 30
0.0
  0
SPLINE
  5
BF
330
83
100
AcDbEntity
  8
Layer 1
 62
    40
370
    13
100
AcDbSpline
210
0.0
220
0.0
230
1.0
 70
    11
 71
     3
 72
    17
 73
    13
 74
     0
 42
0.0000000001
 43
0.0000000001
 12
1.0
 22
0.0
 32
0.0
 13
1.0
 23
0.0
 33
0.0
 40
0.0
 40
0.0
 40
0.0
 40
0.0
 40
1.0
 40
1.0
 40
1.0
 40
2.0
 40
2.0
 40
2.0
 40
3.0
 40
3.0
 40
3.0
 40
4.0
 40
4.0
 40
4.0
 40
4.0
 10
192.7686961720188
 20
779.7264262141342
 30
0.0
 10
192.7686961720188
 20
780.7195843333039
 30
0.0
 10
192.0491249900187
 20
781.4592936597186
 30
0.0
 10
191.1139331750788
 20
781.4592936597186
 30
0.0
 10
190.1787413601424
 20
781.4592936597186
 30
0.0
 10
189.4591701781464
 20
780.7195843333039
 30
0.0
 10
189.4591701781464
 20
779.7264262141342
 30
0.0
 10
189.4591701781464
 20
778.7339130028375
 30
0.0
 10
190.1787413601424
 20
777.9935587685568
 30
0.0
 10
191.1139331750788
 20
777.9935587685568
 30
0.0
 10
192.0491249900187
 20
777.9935587685568
 30
0.0
 10
192.7686961720188
 20
778.7339130028375
 30
0.0
 10
192.7686961720188
 20
779.7264262141342
 30
0.0
  0
SPLINE
  5
C0
330
83
100
AcDbEntity
  8
Layer 1
 62
    40
370
    13
100
AcDbSpline
210
0.0
220
0.0
230
1.0
 70
    11
 71
     3
 72
    35
 73
    31
 74
     0
 42
0.0000000001
 43
0.0000000001
 12
1.0
 22
0.0
 32
0.0
 13
1.0
 23
0.0
 33
0.0
 40
0.0
 40
0.0
 40
0.0
 40
0.0
 40
1.0
 40
1.0
 40
1.0
 40
2.0
 40
2.0
 40
2.0
 40
3.0
 40
3.0
 40
3.0
 40
4.0
 40
4.0
 40
4.0
 40
5.0
 40
5.0
 40
5.0
 40
6.0
 40
6.0
 40
6.0
 40
7.0
 40
7.0
 40
7.0
 40
8.0
 40
8.0
 40
8.0
 40
9.0
 40
9.0
 40
9.0
 40
10.0
 40
10.0
 40
10.0
 40
10.0
 10
190.3229063182083
 20
780.9169261413895
 30
0.0
 10
190.3229063182083
 20
780.9169261413895
 30
0.0
 10
191.263112566467
 20
780.9169261413895
 30
0.0
 10
191.263112566467
 20
780.9169261413895
 30
0.0
 10
191.7307084739349
 20
780.9169261413895
 30
0.0
 10
192.0303208650512
 20
780.5654513524718
 30
0.0
 10
192.0303208650512
 20
780.1707677362828
 30
0.0
 10
192.0303208650512
 20
779.8437994463943
 30
0.0
 10
191.8272363154257
 20
779.63420438878
 30
0.0
 10
191.6053476408365
 20
779.5413376555596
 30
0.0
 10
191.6053476408365
 20
779.5413376555596
 30
0.0
 10
192.0904940649373
 20
778.542375365578
 30
0.0
 10
192.0904940649373
 20
778.542375365578
 30
0.0
 10
192.0904940649373
 20
778.542375365578
 30
0.0
 10
191.5038053660234
 20
778.542375365578
 30
0.0
 10
191.5038053660234
 20
778.542375365578
 30
0.0
 10
191.5038053660234
 20
778.542375365578
 30
0.0
 10
191.0838465751396
 20
779.4613690797413
 30
0.0
 10
191.0838465751396
 20
779.4613690797413
 30
0.0
 10
191.0838465751396
 20
779.4613690797413
 30
0.0
 10
190.8381393422564
 20
779.4613690797413
 30
0.0
 10
190.8381393422564
 20
779.4613690797413
 30
0.0
 10
190.8381393422564
 20
779.4613690797413
 30
0.0
 10
190.8381393422564
 20
778.542375365578
 30
0.0
 10
190.8381393422564
 20
778.542375365578
 30
0.0
 10
190.8381393422564
 20
778.542375365578
 30
0.0
 10
190.3229063182083
 20
778.542375365578
 30
0.0
 10
190.3229063182083
 20
778.542375365578
 30
0.0
 10
190.3229063182083
 20
778.542375365578
 30
0.0
 10
190.3229063182083
 20
780.9169261413895
 30
0.0
 10
190.3229063182083
 20
780.9169261413895
 30
0.0
  0
SPLINE
  5
C1
330
83
100
AcDbEntity
  8
Layer 1
 62
    40
370
    13
100
AcDbSpline
210
0.0
220
0.0
230
1.0
 70
    11
 71
     3
 72
    20
 73
    16
 74
     0
 42
0.0000000001
 43
0.0000000001
 12
1.0
 22
0.0
 32
0.0
 13
1.0
 23
0.0
 33
0.0
 40
0.0
 40
0.0
 40
0.0
 40
0.0
 40
1.0
 40
1.0
 40
1.0
 40
2.0
 40
2.0
 40
2.0
 40
3.0
 40
3.0
 40
3.0
 40
4.0
 40
4.0
 40
4.0
 40
5.0
 40
5.0
 40
5.0
 40
5.0
 10
191.1979249332585
 20
779.8625017746224
 30
0.0
 10
191.3897270079002
 20
779.8625017746224
 30
0.0
 10
191.5150878410034
 20
780.0043815059221
 30
0.0
 10
191.5150878410034
 20
780.1707677362828
 30
0.0
 10
191.5150878410034
 20
780.3371539666332
 30
0.0
 10
191.3897270079002
 20
780.4790336979438
 30
0.0
 10
191.1979249332585
 20
780.4790336979438
 30
0.0
 10
191.1979249332585
 20
780.4790336979438
 30
0.0
 10
190.8381393422564
 20
780.4790336979438
 30
0.0
 10
190.8381393422564
 20
780.4790336979438
 30
0.0
 10
190.8381393422564
 20
780.4790336979438
 30
0.0
 10
190.8381393422564
 20
779.8625017746224
 30
0.0
 10
190.8381393422564
 20
779.8625017746224
 30
0.0
 10
190.8381393422564
 20
779.8625017746224
 30
0.0
 10
191.1979249332585
 20
779.8625017746224
 30
0.0
 10
191.1979249332585
 20
779.8625017746224
 30
0.0
  0
ENDBLK
  5
86
330
83
100
AcDbEntity
  8
0
100
AcDbBlockEnd
  0
BLOCK
  5
C4
330
C2
100
AcDbEntity
  8
0
100
AcDbBlockBegin
  2
block 4
 70
     0
 10
0.0
 20
0.0
 30
0.0
  3
block 4
  1

  0
SPLINE
  5
C6
330
C2
100
AcDbEntity
  8
Layer 1
 62
    40
370
    13
100
AcDbSpline
210
0.0
220
0.0
230
1.0
 70
    11
 71
     3
 72
    65
 73
    61
 74
     0
 42
0.0000000001
 43
0.0000000001
 12
1.0
 22
0.0
 32
0.0
 13
1.0
 23
0.0
 33
0.0
 40
0.0
 40
0.0
 40
0.0
 40
0.0
 40
1.0
 40
1.0
 40
1.0
 40
2.0
 40
2.0
 40
2.0
 40
3.0
 40
3.0
 40
3.0
 40
4.0
 40
4.0
 40
4.0
 40
5.0
 40
5.0
 40
5.0
 40
6.0
 40
6.0
 40
6.0
 40
7.0
 40
7.0
 40
7.0
 40
8.0
 40
8.0
 40
8.0
 40
9.0
 40
9.0
 40
9.0
 40
10.0
 40
10.0
 40
10.0
 40
11.0
 40
11.0
 40
11.0
 40
12.0
 40
12.0
 40
12.0
 40
13.0
 40
13.0
 40
13.0
 40
14.0
 40
14.0
 40
14.0
 40
15.0
 40
15.0
 40
15.0
 40
16.0
 40
16.0
 40
16.0
 40
17.0
 40
17.0
 40
17.0
 40
18.0
 40
18.0
 40
18.0
 40
19.0
 40
19.0
 40
19.0
 40
20.0
 40
20.0
 40
20.0
 40
20.0
 10
34.44845820450313
 20
739.9685355302204
 30
0.0
 10
34.44845820450313
 20
739.9685355302204
 30
0.0
 10
33.06257188006558
 20
738.582649205779
 30
0.0
 10
33.06257188006558
 20
738.582649205779
 30
0.0
 10
31.84704367524057
 20
739.7429261285661
 30
0.0
 10
30.4623084191764
 20
740.3368774104666
 30
0.0
 10
28.369666112006
 20
740.3368774104666
 30
0.0
 10
25.65544688191786
 20
740.3368774104666
 30
0.0
 10
24.10035350623729
 20
738.8381863852035
 30
0.0
 10
24.10035350623729
 20
736.5751859584167
 30
0.0
 10
24.10035350623729
 20
735.5852671552489
 30
0.0
 10
24.38351632667927
 20
734.7657064716911
 30
0.0
 10
25.00509324960085
 20
734.2293086085747
 30
0.0
 10
25.62667017252213
 20
733.6929107454656
 30
0.0
 10
26.58781226629896
 20
733.352194506229
 30
0.0
 10
27.63413341988352
 20
733.1841385233699
 30
0.0
 10
27.63413341988352
 20
733.1841385233699
 30
0.0
 10
29.98116183810016
 20
732.8157966431199
 30
0.0
 10
29.98116183810016
 20
732.8157966431199
 30
0.0
 10
31.84704367524057
 20
732.5326338226779
 30
0.0
 10
32.72300670921
 20
732.1942197201951
 30
0.0
 10
33.62774645257358
 20
731.3746590366409
 30
0.0
 10
34.7028443155513
 20
730.4399915155075
 30
0.0
 10
35.32442123847482
 20
729.0840329688365
 30
0.0
 10
35.32442123847482
 20
727.4149838239538
 30
0.0
 10
35.32442123847482
 20
723.8812039103076
 30
0.0
 10
32.58257636736305
 20
721.7033825433323
 30
0.0
 10
28.369666112006
 20
721.7033825433323
 30
0.0
 10
25.37228406147652
 20
721.7033825433323
 30
0.0
 10
23.36482081411288
 20
722.4676919448525
 30
0.0
 10
21.49893897697472
 20
724.362350491386
 30
0.0
 10
21.49893897697472
 20
724.362350491386
 30
0.0
 10
22.94122765182587
 20
725.8034880978619
 30
0.0
 10
22.94122765182587
 20
725.8034880978619
 30
0.0
 10
24.6091257283317
 20
724.1367410897356
 30
0.0
 10
26.16421910401227
 20
723.6256667308863
 30
0.0
 10
28.42606846241959
 20
723.6256667308863
 30
0.0
 10
31.39467380355975
 20
723.6256667308863
 30
0.0
 10
33.20415329028656
 20
724.983927414307
 30
0.0
 10
33.20415329028656
 20
727.3597325419194
 30
0.0
 10
33.20415329028656
 20
728.4325282681486
 30
0.0
 10
32.89336482882481
 20
729.2820167294736
 30
0.0
 10
32.21423448711367
 20
729.8759680113774
 30
0.0
 10
31.59265756419433
 20
730.4399915155075
 30
0.0
 10
31.0274829916844
 20
730.6379752761446
 30
0.0
 10
29.58519431683325
 20
730.8635846777913
 30
0.0
 10
29.58519431683325
 20
730.8635846777913
 30
0.0
 10
27.23816589861629
 20
731.204300917028
 30
0.0
 10
27.23816589861629
 20
731.204300917028
 30
0.0
 10
25.65544688191786
 20
731.4575359596957
 30
0.0
 10
24.46754431811071
 20
731.9386825407742
 30
0.0
 10
23.56280457474746
 20
732.7306175833115
 30
0.0
 10
22.54526013055703
 20
733.6353573266741
 30
0.0
 10
22.00771119906689
 20
734.8785111725164
 30
0.0
 10
22.00771119906689
 20
736.5199346763823
 30
0.0
 10
22.00771119906689
 20
739.9409098891997
 30
0.0
 10
24.46754431811071
 20
742.173982538216
 30
0.0
 10
28.45484517181533
 20
742.173982538216
 30
0.0
 10
31.0274829916844
 20
742.173982538216
 30
0.0
 10
32.72300670921
 20
741.494852196504
 30
0.0
 10
34.44845820450313
 20
739.9685355302204
 30
0.0
  0
SPLINE
  5
C7
330
C2
100
AcDbEntity
  8
Layer 1
 62
    40
370
    13
100
AcDbSpline
210
0.0
220
0.0
230
1.0
 70
    11
 71
     3
 72
    53
 73
    49
 74
     0
 42
0.0000000001
 43
0.0000000001
 12
1.0
 22
0.0
 32
0.0
 13
1.0
 23
0.0
 33
0.0
 40
0.0
 40
0.0
 40
0.0
 40
0.0
 40
1.0
 40
1.0
 40
1.0
 40
2.0
 40
2.0
 40
2.0
 40
3.0
 40
3.0
 40
3.0
 40
4.0
 40
4.0
 40
4.0
 40
5.0
 40
5.0
 40
5.0
 40
6.0
 40
6.0
 40
6.0
 40
7.0
 40
7.0
 40
7.0
 40
8.0
 40
8.0
 40
8.0
 40
9.0
 40
9.0
 40
9.0
 40
10.0
 40
10.0
 40
10.0
 40
11.0
 40
11.0
 40
11.0
 40
12.0
 40
12.0
 40
12.0
 40
13.0
 40
13.0
 40
13.0
 40
14.0
 40
14.0
 40
14.0
 40
15.0
 40
15.0
 40
15.0
 40
16.0
 40
16.0
 40
16.0
 40
16.0
 10
41.83716610863905
 20
735.7832509158828
 30
0.0
 10
41.83716610863905
 20
735.7832509158828
 30
0.0
 10
44.80577144977921
 20
735.7832509158828
 30
0.0
 10
44.80577144977921
 20
735.7832509158828
 30
0.0
 10
44.80577144977921
 20
735.7832509158828
 30
0.0
 10
44.80577144977921
 20
734.2293086085747
 30
0.0
 10
44.80577144977921
 20
734.2293086085747
 30
0.0
 10
44.80577144977921
 20
734.2293086085747
 30
0.0
 10
41.83716610863905
 20
734.2293086085747
 30
0.0
 10
41.83716610863905
 20
734.2293086085747
 30
0.0
 10
41.83716610863905
 20
734.2293086085747
 30
0.0
 10
41.83716610863905
 20
725.6630577560194
 30
0.0
 10
41.83716610863905
 20
725.6630577560194
 30
0.0
 10
41.83716610863905
 20
724.362350491386
 30
0.0
 10
42.43111739054665
 20
723.6256667308863
 30
0.0
 10
43.73182465517488
 20
723.6256667308863
 30
0.0
 10
43.73182465517488
 20
723.6256667308863
 30
0.0
 10
44.80577144977921
 20
723.6256667308863
 30
0.0
 10
44.80577144977921
 20
723.6256667308863
 30
0.0
 10
44.80577144977921
 20
723.6256667308863
 30
0.0
 10
44.80577144977921
 20
721.8737406629484
 30
0.0
 10
44.80577144977921
 20
721.8737406629484
 30
0.0
 10
44.80577144977921
 20
721.8737406629484
 30
0.0
 10
43.36348277492582
 20
721.8737406629484
 30
0.0
 10
43.36348277492582
 20
721.8737406629484
 30
0.0
 10
40.98882871569132
 20
721.8737406629484
 30
0.0
 10
39.80092615188385
 20
723.5427898078318
 30
0.0
 10
39.80092615188385
 20
725.6055043372282
 30
0.0
 10
39.80092615188385
 20
725.6055043372282
 30
0.0
 10
39.80092615188385
 20
734.2293086085747
 30
0.0
 10
39.80092615188385
 20
734.2293086085747
 30
0.0
 10
39.80092615188385
 20
734.2293086085747
 30
0.0
 10
38.04784901557062
 20
734.2293086085747
 30
0.0
 10
38.04784901557062
 20
734.2293086085747
 30
0.0
 10
38.04784901557062
 20
734.2293086085747
 30
0.0
 10
38.04784901557062
 20
735.7832509158828
 30
0.0
 10
38.04784901557062
 20
735.7832509158828
 30
0.0
 10
38.04784901557062
 20
735.7832509158828
 30
0.0
 10
39.80092615188385
 20
735.7832509158828
 30
0.0
 10
39.80092615188385
 20
735.7832509158828
 30
0.0
 10
39.80092615188385
 20
735.7832509158828
 30
0.0
 10
39.80092615188385
 20
740.0537145900249
 30
0.0
 10
39.80092615188385
 20
740.0537145900249
 30
0.0
 10
39.80092615188385
 20
740.0537145900249
 30
0.0
 10
41.83716610863905
 20
740.0537145900249
 30
0.0
 10
41.83716610863905
 20
740.0537145900249
 30
0.0
 10
41.83716610863905
 20
740.0537145900249
 30
0.0
 10
41.83716610863905
 20
735.7832509158828
 30
0.0
 10
41.83716610863905
 20
735.7832509158828
 30
0.0
  0
SPLINE
  5
C8
330
C2
100
AcDbEntity
  8
Layer 1
 62
    40
370
    13
100
AcDbSpline
210
0.0
220
0.0
230
1.0
 70
    11
 71
     3
 72
    35
 73
    31
 74
     0
 42
0.0000000001
 43
0.0000000001
 12
1.0
 22
0.0
 32
0.0
 13
1.0
 23
0.0
 33
0.0
 40
0.0
 40
0.0
 40
0.0
 40
0.0
 40
1.0
 40
1.0
 40
1.0
 40
2.0
 40
2.0
 40
2.0
 40
3.0
 40
3.0
 40
3.0
 40
4.0
 40
4.0
 40
4.0
 40
5.0
 40
5.0
 40
5.0
 40
6.0
 40
6.0
 40
6.0
 40
7.0
 40
7.0
 40
7.0
 40
8.0
 40
8.0
 40
8.0
 40
9.0
 40
9.0
 40
9.0
 40
10.0
 40
10.0
 40
10.0
 40
10.0
 10
58.12593469431117
 20
734.6529017708658
 30
0.0
 10
58.12593469431117
 20
734.6529017708658
 30
0.0
 10
56.62724366904418
 20
733.1265851045823
 30
0.0
 10
56.62724366904418
 20
733.1265851045823
 30
0.0
 10
55.86408533590385
 20
733.8908945060989
 30
0.0
 10
55.29891076339393
 20
734.1441295487698
 30
0.0
 10
54.22496396879183
 20
734.1441295487698
 30
0.0
 10
52.1887240120347
 20
734.1441295487698
 30
0.0
 10
50.8880167474023
 20
732.5326338226779
 30
0.0
 10
50.8880167474023
 20
730.4123658744871
 30
0.0
 10
50.8880167474023
 20
730.4123658744871
 30
0.0
 10
50.8880167474023
 20
721.8737406629484
 30
0.0
 10
50.8880167474023
 20
721.8737406629484
 30
0.0
 10
50.8880167474023
 20
721.8737406629484
 30
0.0
 10
48.85292785902337
 20
721.8737406629484
 30
0.0
 10
48.85292785902337
 20
721.8737406629484
 30
0.0
 10
48.85292785902337
 20
721.8737406629484
 30
0.0
 10
48.85292785902337
 20
735.7832509158828
 30
0.0
 10
48.85292785902337
 20
735.7832509158828
 30
0.0
 10
48.85292785902337
 20
735.7832509158828
 30
0.0
 10
50.8880167474023
 20
735.7832509158828
 30
0.0
 10
50.8880167474023
 20
735.7832509158828
 30
0.0
 10
50.8880167474023
 20
735.7832509158828
 30
0.0
 10
50.8880167474023
 20
734.0865761299822
 30
0.0
 10
50.8880167474023
 20
734.0865761299822
 30
0.0
 10
51.6511750805468
 20
735.2468530527699
 30
0.0
 10
53.17864281520535
 20
735.9536090354957
 30
0.0
 10
54.79013854129727
 20
735.9536090354957
 30
0.0
 10
56.1184714469501
 20
735.9536090354957
 30
0.0
 10
57.13601589114052
 20
735.6428205740365
 30
0.0
 10
58.12593469431117
 20
734.6529017708658
 30
0.0
  0
SPLINE
  5
C9
330
C2
100
AcDbEntity
  8
Layer 1
 62
    40
370
    13
100
AcDbSpline
210
0.0
220
0.0
230
1.0
 70
    11
 71
     3
 72
    44
 73
    40
 74
     0
 42
0.0000000001
 43
0.0000000001
 12
1.0
 22
0.0
 32
0.0
 13
1.0
 23
0.0
 33
0.0
 40
0.0
 40
0.0
 40
0.0
 40
0.0
 40
1.0
 40
1.0
 40
1.0
 40
2.0
 40
2.0
 40
2.0
 40
3.0
 40
3.0
 40
3.0
 40
4.0
 40
4.0
 40
4.0
 40
5.0
 40
5.0
 40
5.0
 40
6.0
 40
6.0
 40
6.0
 40
7.0
 40
7.0
 40
7.0
 40
8.0
 40
8.0
 40
8.0
 40
9.0
 40
9.0
 40
9.0
 40
10.0
 40
10.0
 40
10.0
 40
11.0
 40
11.0
 40
11.0
 40
12.0
 40
12.0
 40
12.0
 40
13.0
 40
13.0
 40
13.0
 40
13.0
 10
71.59113255419167
 20
721.8737406629484
 30
0.0
 10
71.59113255419167
 20
721.8737406629484
 30
0.0
 10
69.5836693068306
 20
721.8737406629484
 30
0.0
 10
69.5836693068306
 20
721.8737406629484
 30
0.0
 10
69.5836693068306
 20
721.8737406629484
 30
0.0
 10
69.5836693068306
 20
723.4276829702527
 30
0.0
 10
69.5836693068306
 20
723.4276829702527
 30
0.0
 10
68.59375050366026
 20
722.297333825236
 30
0.0
 10
67.2090152475961
 20
721.7033825433323
 30
0.0
 10
65.65392187191777
 20
721.7033825433323
 30
0.0
 10
64.15523084664854
 20
721.7033825433323
 30
0.0
 10
62.91092593243197
 20
722.1569034833904
 30
0.0
 10
62.06373960785795
 20
723.0040898079653
 30
0.0
 10
61.07382080468538
 20
723.9663829701155
 30
0.0
 10
60.62145093300263
 20
725.2947158757694
 30
0.0
 10
60.62145093300263
 20
726.9062116018613
 30
0.0
 10
60.62145093300263
 20
726.9062116018613
 30
0.0
 10
60.62145093300263
 20
735.7832509158828
 30
0.0
 10
60.62145093300263
 20
735.7832509158828
 30
0.0
 10
60.62145093300263
 20
735.7832509158828
 30
0.0
 10
62.6565398213838
 20
735.7832509158828
 30
0.0
 10
62.6565398213838
 20
735.7832509158828
 30
0.0
 10
62.6565398213838
 20
735.7832509158828
 30
0.0
 10
62.6565398213838
 20
727.2170000633237
 30
0.0
 10
62.6565398213838
 20
727.2170000633237
 30
0.0
 10
62.6565398213838
 20
724.7583180126533
 30
0.0
 10
63.98602379540969
 20
723.5128620300575
 30
0.0
 10
66.07751503420445
 20
723.5128620300575
 30
0.0
 10
68.17015734137134
 20
723.5128620300575
 30
0.0
 10
69.55604366581306
 20
724.7859436536737
 30
0.0
 10
69.55604366581306
 20
727.2170000633237
 30
0.0
 10
69.55604366581306
 20
727.2170000633237
 30
0.0
 10
69.55604366581306
 20
735.7832509158828
 30
0.0
 10
69.55604366581306
 20
735.7832509158828
 30
0.0
 10
69.55604366581306
 20
735.7832509158828
 30
0.0
 10
71.59113255419167
 20
735.7832509158828
 30
0.0
 10
71.59113255419167
 20
735.7832509158828
 30
0.0
 10
71.59113255419167
 20
735.7832509158828
 30
0.0
 10
71.59113255419167
 20
721.8737406629484
 30
0.0
 10
71.59113255419167
 20
721.8737406629484
 30
0.0
  0
SPLINE
  5
CA
330
C2
100
AcDbEntity
  8
Layer 1
 62
    40
370
    13
100
AcDbSpline
210
0.0
220
0.0
230
1.0
 70
    11
 71
     3
 72
    41
 73
    37
 74
     0
 42
0.0000000001
 43
0.0000000001
 12
1.0
 22
0.0
 32
0.0
 13
1.0
 23
0.0
 33
0.0
 40
0.0
 40
0.0
 40
0.0
 40
0.0
 40
1.0
 40
1.0
 40
1.0
 40
2.0
 40
2.0
 40
2.0
 40
3.0
 40
3.0
 40
3.0
 40
4.0
 40
4.0
 40
4.0
 40
5.0
 40
5.0
 40
5.0
 40
6.0
 40
6.0
 40
6.0
 40
7.0
 40
7.0
 40
7.0
 40
8.0
 40
8.0
 40
8.0
 40
9.0
 40
9.0
 40
9.0
 40
10.0
 40
10.0
 40
10.0
 40
11.0
 40
11.0
 40
11.0
 40
12.0
 40
12.0
 40
12.0
 40
12.0
 10
86.69775391793706
 20
733.8908945060989
 30
0.0
 10
86.69775391793706
 20
733.8908945060989
 30
0.0
 10
85.31186759349725
 20
732.5901872414655
 30
0.0
 10
85.31186759349725
 20
732.5901872414655
 30
0.0
 10
84.2655464399127
 20
733.7481620274993
 30
0.0
 10
83.44598575635685
 20
734.1441295487698
 30
0.0
 10
82.11765285070723
 20
734.1441295487698
 30
0.0
 10
80.76054323566059
 20
734.1441295487698
 30
0.0
 10
79.62904302226896
 20
733.6077316856572
 30
0.0
 10
78.89466139852051
 20
732.5602594636952
 30
0.0
 10
78.24430776620511
 20
731.6555197203326
 30
0.0
 10
77.98992165515693
 20
730.5827239941032
 30
0.0
 10
77.98992165515693
 20
728.8284957894156
 30
0.0
 10
77.98992165515693
 20
727.076569721478
 30
0.0
 10
78.24430776620511
 20
726.0014718584952
 30
0.0
 10
78.89466139852051
 20
725.0967321151361
 30
0.0
 10
79.62904302226896
 20
724.0515620299275
 30
0.0
 10
80.76054323566059
 20
723.5128620300575
 30
0.0
 10
82.11765285070723
 20
723.5128620300575
 30
0.0
 10
83.44598575635685
 20
723.5128620300575
 30
0.0
 10
84.2655464399127
 20
723.9387573290984
 30
0.0
 10
85.31186759349725
 20
725.0967321151361
 30
0.0
 10
85.31186759349725
 20
725.0967321151361
 30
0.0
 10
86.69775391793706
 20
723.7683992094856
 30
0.0
 10
86.69775391793706
 20
723.7683992094856
 30
0.0
 10
85.25546524308335
 20
722.212154765428
 30
0.0
 10
84.03993703826059
 20
721.7033825433323
 30
0.0
 10
82.11765285070723
 20
721.7033825433323
 30
0.0
 10
78.61149857807852
 20
721.7033825433323
 30
0.0
 10
75.95368169840205
 20
724.0791876709446
 30
0.0
 10
75.95368169840205
 20
728.8284957894156
 30
0.0
 10
75.95368169840205
 20
733.5778039078865
 30
0.0
 10
78.61149857807852
 20
735.9536090354957
 30
0.0
 10
82.11765285070723
 20
735.9536090354957
 30
0.0
 10
84.03993703826059
 20
735.9536090354957
 30
0.0
 10
85.25546524308335
 20
735.4448368134032
 30
0.0
 10
86.69775391793706
 20
733.8908945060989
 30
0.0
  0
SPLINE
  5
CB
330
C2
100
AcDbEntity
  8
Layer 1
 62
    40
370
    13
100
AcDbSpline
210
0.0
220
0.0
230
1.0
 70
    11
 71
     3
 72
    53
 73
    49
 74
     0
 42
0.0000000001
 43
0.0000000001
 12
1.0
 22
0.0
 32
0.0
 13
1.0
 23
0.0
 33
0.0
 40
0.0
 40
0.0
 40
0.0
 40
0.0
 40
1.0
 40
1.0
 40
1.0
 40
2.0
 40
2.0
 40
2.0
 40
3.0
 40
3.0
 40
3.0
 40
4.0
 40
4.0
 40
4.0
 40
5.0
 40
5.0
 40
5.0
 40
6.0
 40
6.0
 40
6.0
 40
7.0
 40
7.0
 40
7.0
 40
8.0
 40
8.0
 40
8.0
 40
9.0
 40
9.0
 40
9.0
 40
10.0
 40
10.0
 40
10.0
 40
11.0
 40
11.0
 40
11.0
 40
12.0
 40
12.0
 40
12.0
 40
13.0
 40
13.0
 40
13.0
 40
14.0
 40
14.0
 40
14.0
 40
15.0
 40
15.0
 40
15.0
 40
16.0
 40
16.0
 40
16.0
 40
16.0
 10
92.95381054030283
 20
735.7832509158828
 30
0.0
 10
92.95381054030283
 20
735.7832509158828
 30
0.0
 10
95.92241588144297
 20
735.7832509158828
 30
0.0
 10
95.92241588144297
 20
735.7832509158828
 30
0.0
 10
95.92241588144297
 20
735.7832509158828
 30
0.0
 10
95.92241588144297
 20
734.2293086085747
 30
0.0
 10
95.92241588144297
 20
734.2293086085747
 30
0.0
 10
95.92241588144297
 20
734.2293086085747
 30
0.0
 10
92.95381054030283
 20
734.2293086085747
 30
0.0
 10
92.95381054030283
 20
734.2293086085747
 30
0.0
 10
92.95381054030283
 20
734.2293086085747
 30
0.0
 10
92.95381054030283
 20
725.6630577560194
 30
0.0
 10
92.95381054030283
 20
725.6630577560194
 30
0.0
 10
92.95381054030283
 20
724.362350491386
 30
0.0
 10
93.54776182220655
 20
723.6256667308863
 30
0.0
 10
94.8484690868412
 20
723.6256667308863
 30
0.0
 10
94.8484690868412
 20
723.6256667308863
 30
0.0
 10
95.92241588144297
 20
723.6256667308863
 30
0.0
 10
95.92241588144297
 20
723.6256667308863
 30
0.0
 10
95.92241588144297
 20
723.6256667308863
 30
0.0
 10
95.92241588144297
 20
721.8737406629484
 30
0.0
 10
95.92241588144297
 20
721.8737406629484
 30
0.0
 10
95.92241588144297
 20
721.8737406629484
 30
0.0
 10
94.48012720658959
 20
721.8737406629484
 30
0.0
 10
94.48012720658959
 20
721.8737406629484
 30
0.0
 10
92.10547314735508
 20
721.8737406629484
 30
0.0
 10
90.91757058354825
 20
723.5427898078318
 30
0.0
 10
90.91757058354825
 20
725.6055043372282
 30
0.0
 10
90.91757058354825
 20
725.6055043372282
 30
0.0
 10
90.91757058354825
 20
734.2293086085747
 30
0.0
 10
90.91757058354825
 20
734.2293086085747
 30
0.0
 10
90.91757058354825
 20
734.2293086085747
 30
0.0
 10
89.16449344723503
 20
734.2293086085747
 30
0.0
 10
89.16449344723503
 20
734.2293086085747
 30
0.0
 10
89.16449344723503
 20
734.2293086085747
 30
0.0
 10
89.16449344723503
 20
735.7832509158828
 30
0.0
 10
89.16449344723503
 20
735.7832509158828
 30
0.0
 10
89.16449344723503
 20
735.7832509158828
 30
0.0
 10
90.91757058354825
 20
735.7832509158828
 30
0.0
 10
90.91757058354825
 20
735.7832509158828
 30
0.0
 10
90.91757058354825
 20
735.7832509158828
 30
0.0
 10
90.91757058354825
 20
740.0537145900249
 30
0.0
 10
90.91757058354825
 20
740.0537145900249
 30
0.0
 10
90.91757058354825
 20
740.0537145900249
 30
0.0
 10
92.95381054030283
 20
740.0537145900249
 30
0.0
 10
92.95381054030283
 20
740.0537145900249
 30
0.0
 10
92.95381054030283
 20
740.0537145900249
 30
0.0
 10
92.95381054030283
 20
735.7832509158828
 30
0.0
 10
92.95381054030283
 20
735.7832509158828
 30
0.0
  0
SPLINE
  5
CC
330
C2
100
AcDbEntity
  8
Layer 1
 62
    40
370
    13
100
AcDbSpline
210
0.0
220
0.0
230
1.0
 70
    11
 71
     3
 72
    44
 73
    40
 74
     0
 42
0.0000000001
 43
0.0000000001
 12
1.0
 22
0.0
 32
0.0
 13
1.0
 23
0.0
 33
0.0
 40
0.0
 40
0.0
 40
0.0
 40
0.0
 40
1.0
 40
1.0
 40
1.0
 40
2.0
 40
2.0
 40
2.0
 40
3.0
 40
3.0
 40
3.0
 40
4.0
 40
4.0
 40
4.0
 40
5.0
 40
5.0
 40
5.0
 40
6.0
 40
6.0
 40
6.0
 40
7.0
 40
7.0
 40
7.0
 40
8.0
 40
8.0
 40
8.0
 40
9.0
 40
9.0
 40
9.0
 40
10.0
 40
10.0
 40
10.0
 40
11.0
 40
11.0
 40
11.0
 40
12.0
 40
12.0
 40
12.0
 40
13.0
 40
13.0
 40
13.0
 40
13.0
 10
110.7976725016555
 20
721.8737406629484
 30
0.0
 10
110.7976725016555
 20
721.8737406629484
 30
0.0
 10
108.7902092542944
 20
721.8737406629484
 30
0.0
 10
108.7902092542944
 20
721.8737406629484
 30
0.0
 10
108.7902092542944
 20
721.8737406629484
 30
0.0
 10
108.7902092542944
 20
723.4276829702527
 30
0.0
 10
108.7902092542944
 20
723.4276829702527
 30
0.0
 10
107.8002904511215
 20
722.297333825236
 30
0.0
 10
106.4155551950577
 20
721.7033825433323
 30
0.0
 10
104.8604618193794
 20
721.7033825433323
 30
0.0
 10
103.3617707941121
 20
721.7033825433323
 30
0.0
 10
102.1174658798936
 20
722.1569034833904
 30
0.0
 10
101.2691284869436
 20
723.0040898079653
 30
0.0
 10
100.280360752147
 20
723.9663829701155
 30
0.0
 10
99.82799088046615
 20
725.2947158757694
 30
0.0
 10
99.82799088046615
 20
726.9062116018613
 30
0.0
 10
99.82799088046615
 20
726.9062116018613
 30
0.0
 10
99.82799088046615
 20
735.7832509158828
 30
0.0
 10
99.82799088046615
 20
735.7832509158828
 30
0.0
 10
99.82799088046615
 20
735.7832509158828
 30
0.0
 10
101.8630797688454
 20
735.7832509158828
 30
0.0
 10
101.8630797688454
 20
735.7832509158828
 30
0.0
 10
101.8630797688454
 20
735.7832509158828
 30
0.0
 10
101.8630797688454
 20
727.2170000633237
 30
0.0
 10
101.8630797688454
 20
727.2170000633237
 30
0.0
 10
101.8630797688454
 20
724.7583180126533
 30
0.0
 10
103.1925637428732
 20
723.5128620300575
 30
0.0
 10
105.284054981666
 20
723.5128620300575
 30
0.0
 10
107.3766972888345
 20
723.5128620300575
 30
0.0
 10
108.7625836132743
 20
724.7859436536737
 30
0.0
 10
108.7625836132743
 20
727.2170000633237
 30
0.0
 10
108.7625836132743
 20
727.2170000633237
 30
0.0
 10
108.7625836132743
 20
735.7832509158828
 30
0.0
 10
108.7625836132743
 20
735.7832509158828
 30
0.0
 10
108.7625836132743
 20
735.7832509158828
 30
0.0
 10
110.7976725016555
 20
735.7832509158828
 30
0.0
 10
110.7976725016555
 20
735.7832509158828
 30
0.0
 10
110.7976725016555
 20
735.7832509158828
 30
0.0
 10
110.7976725016555
 20
721.8737406629484
 30
0.0
 10
110.7976725016555
 20
721.8737406629484
 30
0.0
  0
SPLINE
  5
CD
330
C2
100
AcDbEntity
  8
Layer 1
 62
    40
370
    13
100
AcDbSpline
210
0.0
220
0.0
230
1.0
 70
    11
 71
     3
 72
    35
 73
    31
 74
     0
 42
0.0000000001
 43
0.0000000001
 12
1.0
 22
0.0
 32
0.0
 13
1.0
 23
0.0
 33
0.0
 40
0.0
 40
0.0
 40
0.0
 40
0.0
 40
1.0
 40
1.0
 40
1.0
 40
2.0
 40
2.0
 40
2.0
 40
3.0
 40
3.0
 40
3.0
 40
4.0
 40
4.0
 40
4.0
 40
5.0
 40
5.0
 40
5.0
 40
6.0
 40
6.0
 40
6.0
 40
7.0
 40
7.0
 40
7.0
 40
8.0
 40
8.0
 40
8.0
 40
9.0
 40
9.0
 40
9.0
 40
10.0
 40
10.0
 40
10.0
 40
10.0
 10
125.1699122416499
 20
734.6529017708658
 30
0.0
 10
125.1699122416499
 20
734.6529017708658
 30
0.0
 10
123.6712212163848
 20
733.1265851045823
 30
0.0
 10
123.6712212163848
 20
733.1265851045823
 30
0.0
 10
122.9069118148666
 20
733.8908945060989
 30
0.0
 10
122.3405861739823
 20
734.1441295487698
 30
0.0
 10
121.2677904477546
 20
734.1441295487698
 30
0.0
 10
119.2303994226234
 20
734.1441295487698
 30
0.0
 10
117.9319942947429
 20
732.5326338226779
 30
0.0
 10
117.9319942947429
 20
730.4123658744871
 30
0.0
 10
117.9319942947429
 20
730.4123658744871
 30
0.0
 10
117.9319942947429
 20
721.8737406629484
 30
0.0
 10
117.9319942947429
 20
721.8737406629484
 30
0.0
 10
117.9319942947429
 20
721.8737406629484
 30
0.0
 10
115.8946032696098
 20
721.8737406629484
 30
0.0
 10
115.8946032696098
 20
721.8737406629484
 30
0.0
 10
115.8946032696098
 20
721.8737406629484
 30
0.0
 10
115.8946032696098
 20
735.7832509158828
 30
0.0
 10
115.8946032696098
 20
735.7832509158828
 30
0.0
 10
115.8946032696098
 20
735.7832509158828
 30
0.0
 10
117.9319942947429
 20
735.7832509158828
 30
0.0
 10
117.9319942947429
 20
735.7832509158828
 30
0.0
 10
117.9319942947429
 20
735.7832509158828
 30
0.0
 10
117.9319942947429
 20
734.0865761299822
 30
0.0
 10
117.9319942947429
 20
734.0865761299822
 30
0.0
 10
118.6940015595092
 20
735.2468530527699
 30
0.0
 10
120.2203182257941
 20
735.9536090354957
 30
0.0
 10
121.8318139518908
 20
735.9536090354957
 30
0.0
 10
123.1624489942885
 20
735.9536090354957
 30
0.0
 10
124.1799934384812
 20
735.6428205740365
 30
0.0
 10
125.1699122416499
 20
734.6529017708658
 30
0.0
  0
SPLINE
  5
CE
330
C2
100
AcDbEntity
  8
Layer 1
 62
    40
370
    13
100
AcDbSpline
210
0.0
220
0.0
230
1.0
 70
    11
 71
     3
 72
    47
 73
    43
 74
     0
 42
0.0000000001
 43
0.0000000001
 12
1.0
 22
0.0
 32
0.0
 13
1.0
 23
0.0
 33
0.0
 40
0.0
 40
0.0
 40
0.0
 40
0.0
 40
1.0
 40
1.0
 40
1.0
 40
2.0
 40
2.0
 40
2.0
 40
3.0
 40
3.0
 40
3.0
 40
4.0
 40
4.0
 40
4.0
 40
5.0
 40
5.0
 40
5.0
 40
6.0
 40
6.0
 40
6.0
 40
7.0
 40
7.0
 40
7.0
 40
8.0
 40
8.0
 40
8.0
 40
9.0
 40
9.0
 40
9.0
 40
10.0
 40
10.0
 40
10.0
 40
11.0
 40
11.0
 40
11.0
 40
12.0
 40
12.0
 40
12.0
 40
13.0
 40
13.0
 40
13.0
 40
14.0
 40
14.0
 40
14.0
 40
14.0
 10
137.4449054009755
 20
731.3171056178533
 30
0.0
 10
137.4449054009755
 20
731.3171056178533
 30
0.0
 10
137.4449054009755
 20
721.8737406629484
 30
0.0
 10
137.4449054009755
 20
721.8737406629484
 30
0.0
 10
137.4449054009755
 20
721.8737406629484
 30
0.0
 10
135.4098165125963
 20
721.8737406629484
 30
0.0
 10
135.4098165125963
 20
721.8737406629484
 30
0.0
 10
135.4098165125963
 20
721.8737406629484
 30
0.0
 10
135.4098165125963
 20
723.202073568599
 30
0.0
 10
135.4098165125963
 20
723.202073568599
 30
0.0
 10
134.3070930085987
 20
722.0993500646027
 30
0.0
 10
133.2596207866385
 20
721.7033825433323
 30
0.0
 10
131.3948900178741
 20
721.7033825433323
 30
0.0
 10
129.4726058303179
 20
721.7033825433323
 30
0.0
 10
128.425133608358
 20
722.0440987825651
 30
0.0
 10
127.4651425829568
 20
722.9764641669485
 30
0.0
 10
126.7583866002281
 20
723.655594508657
 30
0.0
 10
126.4176703609963
 20
724.7007645938656
 30
0.0
 10
126.4176703609963
 20
725.8034880978619
 30
0.0
 10
126.4176703609963
 20
728.2644722852855
 30
0.0
 10
128.1442729246679
 20
729.8184145925827
 30
0.0
 10
131.2521575392771
 20
729.8184145925827
 30
0.0
 10
131.2521575392771
 20
729.8184145925827
 30
0.0
 10
135.4098165125963
 20
729.8184145925827
 30
0.0
 10
135.4098165125963
 20
729.8184145925827
 30
0.0
 10
135.4098165125963
 20
729.8184145925827
 30
0.0
 10
135.4098165125963
 20
731.1467474982333
 30
0.0
 10
135.4098165125963
 20
731.1467474982333
 30
0.0
 10
135.4098165125963
 20
733.1542107455956
 30
0.0
 10
134.4198977094214
 20
734.2016829675574
 30
0.0
 10
131.8461088211764
 20
734.2016829675574
 30
0.0
 10
130.0941827532414
 20
734.2016829675574
 30
0.0
 10
129.1894430098762
 20
733.7481620274993
 30
0.0
 10
128.3399545485503
 20
732.5901872414655
 30
0.0
 10
128.3399545485503
 20
732.5901872414655
 30
0.0
 10
126.9563703608624
 20
733.8609667283285
 30
0.0
 10
126.9563703608624
 20
733.8609667283285
 30
0.0
 10
128.1718985656877
 20
735.4724624544205
 30
0.0
 10
129.5854105311457
 20
735.9536090354957
 30
0.0
 10
131.8760365989484
 20
735.9536090354957
 30
0.0
 10
135.6354259142487
 20
735.9536090354957
 30
0.0
 10
137.4449054009755
 20
734.3144876683828
 30
0.0
 10
137.4449054009755
 20
731.3171056178533
 30
0.0
  0
SPLINE
  5
CF
330
C2
100
AcDbEntity
  8
Layer 1
 62
    40
370
    13
100
AcDbSpline
210
0.0
220
0.0
230
1.0
 70
    11
 71
     3
 72
    23
 73
    19
 74
     0
 42
0.0000000001
 43
0.0000000001
 12
1.0
 22
0.0
 32
0.0
 13
1.0
 23
0.0
 33
0.0
 40
0.0
 40
0.0
 40
0.0
 40
0.0
 40
1.0
 40
1.0
 40
1.0
 40
2.0
 40
2.0
 40
2.0
 40
3.0
 40
3.0
 40
3.0
 40
4.0
 40
4.0
 40
4.0
 40
5.0
 40
5.0
 40
5.0
 40
6.0
 40
6.0
 40
6.0
 40
6.0
 10
131.5353203597188
 20
728.2920979262992
 30
0.0
 10
129.4426780525506
 20
728.2920979262992
 30
0.0
 10
128.3975079673382
 20
727.4725372427446
 30
0.0
 10
128.3975079673382
 20
725.8311137388823
 30
0.0
 10
128.3975079673382
 20
724.2196180127903
 30
0.0
 10
129.3874267705127
 20
723.4576107480234
 30
0.0
 10
131.6204994195259
 20
723.4576107480234
 30
0.0
 10
132.7807763423142
 20
723.4576107480234
 30
0.0
 10
133.7983207865021
 20
723.5704154488521
 30
0.0
 10
134.7030605298679
 20
724.3899761324033
 30
0.0
 10
135.1842071109425
 20
724.8434970724613
 30
0.0
 10
135.4098165125963
 20
725.633129978249
 30
0.0
 10
135.4098165125963
 20
726.7934069010361
 30
0.0
 10
135.4098165125963
 20
726.7934069010361
 30
0.0
 10
135.4098165125963
 20
728.2920979262992
 30
0.0
 10
135.4098165125963
 20
728.2920979262992
 30
0.0
 10
135.4098165125963
 20
728.2920979262992
 30
0.0
 10
131.5353203597188
 20
728.2920979262992
 30
0.0
 10
131.5353203597188
 20
728.2920979262992
 30
0.0
  0
SPLINE
  5
D0
330
C2
100
AcDbEntity
  8
Layer 1
 62
    40
370
    13
100
AcDbSpline
210
0.0
220
0.0
230
1.0
 70
    11
 71
     3
 72
    29
 73
    25
 74
     0
 42
0.0000000001
 43
0.0000000001
 12
1.0
 22
0.0
 32
0.0
 13
1.0
 23
0.0
 33
0.0
 40
0.0
 40
0.0
 40
0.0
 40
0.0
 40
1.0
 40
1.0
 40
1.0
 40
2.0
 40
2.0
 40
2.0
 40
3.0
 40
3.0
 40
3.0
 40
4.0
 40
4.0
 40
4.0
 40
5.0
 40
5.0
 40
5.0
 40
6.0
 40
6.0
 40
6.0
 40
7.0
 40
7.0
 40
7.0
 40
8.0
 40
8.0
 40
8.0
 40
8.0
 10
144.3812434334306
 20
725.6630577560194
 30
0.0
 10
144.3812434334306
 20
724.3047970725984
 30
0.0
 10
144.834764373487
 20
723.6256667308863
 30
0.0
 10
146.2482763389447
 20
723.6256667308863
 30
0.0
 10
146.2482763389447
 20
723.6256667308863
 30
0.0
 10
147.3509998429448
 20
723.6256667308863
 30
0.0
 10
147.3509998429448
 20
723.6256667308863
 30
0.0
 10
147.3509998429448
 20
723.6256667308863
 30
0.0
 10
147.3509998429448
 20
721.8737406629484
 30
0.0
 10
147.3509998429448
 20
721.8737406629484
 30
0.0
 10
147.3509998429448
 20
721.8737406629484
 30
0.0
 10
145.8799344586957
 20
721.8737406629484
 30
0.0
 10
145.8799344586957
 20
721.8737406629484
 30
0.0
 10
143.448878049045
 20
721.8737406629484
 30
0.0
 10
142.3461545450494
 20
723.4576107480234
 30
0.0
 10
142.3461545450494
 20
725.5778786962113
 30
0.0
 10
142.3461545450494
 20
725.5778786962113
 30
0.0
 10
142.3461545450494
 20
742.0036244186
 30
0.0
 10
142.3461545450494
 20
742.0036244186
 30
0.0
 10
142.3461545450494
 20
742.0036244186
 30
0.0
 10
144.3812434334306
 20
742.0036244186
 30
0.0
 10
144.3812434334306
 20
742.0036244186
 30
0.0
 10
144.3812434334306
 20
742.0036244186
 30
0.0
 10
144.3812434334306
 20
725.6630577560194
 30
0.0
 10
144.3812434334306
 20
725.6630577560194
 30
0.0
  0
SPLINE
  5
D1
330
C2
100
AcDbEntity
  8
Layer 1
 62
    40
370
    13
100
AcDbSpline
210
0.0
220
0.0
230
1.0
 70
    11
 71
     3
 72
    26
 73
    22
 74
     0
 42
0.0000000001
 43
0.0000000001
 12
1.0
 22
0.0
 32
0.0
 13
1.0
 23
0.0
 33
0.0
 40
0.0
 40
0.0
 40
0.0
 40
0.0
 40
1.0
 40
1.0
 40
1.0
 40
2.0
 40
2.0
 40
2.0
 40
3.0
 40
3.0
 40
3.0
 40
4.0
 40
4.0
 40
4.0
 40
5.0
 40
5.0
 40
5.0
 40
6.0
 40
6.0
 40
6.0
 40
7.0
 40
7.0
 40
7.0
 40
7.0
 10
165.7911152229486
 20
742.0036244186
 30
0.0
 10
169.2972694955751
 20
742.0036244186
 30
0.0
 10
171.7283259052251
 20
739.9961611712373
 30
0.0
 10
171.7283259052251
 20
736.6327393772075
 30
0.0
 10
171.7283259052251
 20
734.5124714290199
 30
0.0
 10
170.4575464183625
 20
732.8434222841403
 30
0.0
 10
168.7608716324628
 20
732.2218453612159
 30
0.0
 10
170.6831558200168
 20
731.5150893784904
 30
0.0
 10
172.0414165034346
 20
729.8460402336037
 30
0.0
 10
172.0414165034346
 20
727.4426094649742
 30
0.0
 10
172.0414165034346
 20
723.7960248505027
 30
0.0
 10
169.6080579570371
 20
721.8737406629484
 30
0.0
 10
166.0466524023708
 20
721.8737406629484
 30
0.0
 10
166.0466524023708
 20
721.8737406629484
 30
0.0
 10
158.2147831735608
 20
721.8737406629484
 30
0.0
 10
158.2147831735608
 20
721.8737406629484
 30
0.0
 10
158.2147831735608
 20
721.8737406629484
 30
0.0
 10
158.2147831735608
 20
742.0036244186
 30
0.0
 10
158.2147831735608
 20
742.0036244186
 30
0.0
 10
158.2147831735608
 20
742.0036244186
 30
0.0
 10
165.7911152229486
 20
742.0036244186
 30
0.0
 10
165.7911152229486
 20
742.0036244186
 30
0.0
  0
SPLINE
  5
D2
330
C2
100
AcDbEntity
  8
Layer 1
 62
    40
370
    13
100
AcDbSpline
210
0.0
220
0.0
230
1.0
 70
    11
 71
     3
 72
    20
 73
    16
 74
     0
 42
0.0000000001
 43
0.0000000001
 12
1.0
 22
0.0
 32
0.0
 13
1.0
 23
0.0
 33
0.0
 40
0.0
 40
0.0
 40
0.0
 40
0.0
 40
1.0
 40
1.0
 40
1.0
 40
2.0
 40
2.0
 40
2.0
 40
3.0
 40
3.0
 40
3.0
 40
4.0
 40
4.0
 40
4.0
 40
5.0
 40
5.0
 40
5.0
 40
5.0
 10
160.3626767627646
 20
740.0813402310457
 30
0.0
 10
160.3626767627646
 20
740.0813402310457
 30
0.0
 10
160.3626767627646
 20
733.0989594635615
 30
0.0
 10
160.3626767627646
 20
733.0989594635615
 30
0.0
 10
160.3626767627646
 20
733.0989594635615
 30
0.0
 10
165.6230592400819
 20
733.0989594635615
 30
0.0
 10
165.6230592400819
 20
733.0989594635615
 30
0.0
 10
167.856131889098
 20
733.0989594635615
 30
0.0
 10
169.5804323160167
 20
734.2016829675574
 30
0.0
 10
169.5804323160167
 20
736.605113736187
 30
0.0
 10
169.5804323160167
 20
739.0062423680666
 30
0.0
 10
167.856131889098
 20
740.0813402310457
 30
0.0
 10
165.6230592400819
 20
740.0813402310457
 30
0.0
 10
165.6230592400819
 20
740.0813402310457
 30
0.0
 10
160.3626767627646
 20
740.0813402310457
 30
0.0
 10
160.3626767627646
 20
740.0813402310457
 30
0.0
  0
SPLINE
  5
D3
330
C2
100
AcDbEntity
  8
Layer 1
 62
    40
370
    13
100
AcDbSpline
210
0.0
220
0.0
230
1.0
 70
    11
 71
     3
 72
    20
 73
    16
 74
     0
 42
0.0000000001
 43
0.0000000001
 12
1.0
 22
0.0
 32
0.0
 13
1.0
 23
0.0
 33
0.0
 40
0.0
 40
0.0
 40
0.0
 40
0.0
 40
1.0
 40
1.0
 40
1.0
 40
2.0
 40
2.0
 40
2.0
 40
3.0
 40
3.0
 40
3.0
 40
4.0
 40
4.0
 40
4.0
 40
5.0
 40
5.0
 40
5.0
 40
5.0
 10
160.3626767627646
 20
731.1766752760072
 30
0.0
 10
160.3626767627646
 20
731.1766752760072
 30
0.0
 10
160.3626767627646
 20
723.7960248505027
 30
0.0
 10
160.3626767627646
 20
723.7960248505027
 30
0.0
 10
160.3626767627646
 20
723.7960248505027
 30
0.0
 10
165.8486686417363
 20
723.7960248505027
 30
0.0
 10
165.8486686417363
 20
723.7960248505027
 30
0.0
 10
168.3372784701745
 20
723.7960248505027
 30
0.0
 10
169.8912207774788
 20
725.2371624569782
 30
0.0
 10
169.8912207774788
 20
727.5001628837654
 30
0.0
 10
169.8912207774788
 20
729.7608611737954
 30
0.0
 10
168.3372784701745
 20
731.1766752760072
 30
0.0
 10
165.8486686417363
 20
731.1766752760072
 30
0.0
 10
165.8486686417363
 20
731.1766752760072
 30
0.0
 10
160.3626767627646
 20
731.1766752760072
 30
0.0
 10
160.3626767627646
 20
731.1766752760072
 30
0.0
  0
SPLINE
  5
D4
330
C2
100
AcDbEntity
  8
Layer 1
 62
    40
370
    13
100
AcDbSpline
210
0.0
220
0.0
230
1.0
 70
    11
 71
     3
 72
    35
 73
    31
 74
     0
 42
0.0000000001
 43
0.0000000001
 12
1.0
 22
0.0
 32
0.0
 13
1.0
 23
0.0
 33
0.0
 40
0.0
 40
0.0
 40
0.0
 40
0.0
 40
1.0
 40
1.0
 40
1.0
 40
2.0
 40
2.0
 40
2.0
 40
3.0
 40
3.0
 40
3.0
 40
4.0
 40
4.0
 40
4.0
 40
5.0
 40
5.0
 40
5.0
 40
6.0
 40
6.0
 40
6.0
 40
7.0
 40
7.0
 40
7.0
 40
8.0
 40
8.0
 40
8.0
 40
9.0
 40
9.0
 40
9.0
 40
10.0
 40
10.0
 40
10.0
 40
10.0
 10
186.0176887221643
 20
734.6529017708658
 30
0.0
 10
186.0176887221643
 20
734.6529017708658
 30
0.0
 10
184.5189976968992
 20
733.1265851045823
 30
0.0
 10
184.5189976968992
 20
733.1265851045823
 30
0.0
 10
183.7546882953807
 20
733.8908945060989
 30
0.0
 10
183.1883626544968
 20
734.1441295487698
 30
0.0
 10
182.115566928269
 20
734.1441295487698
 30
0.0
 10
180.0804780398879
 20
734.1441295487698
 30
0.0
 10
178.7797707752574
 20
732.5326338226779
 30
0.0
 10
178.7797707752574
 20
730.4123658744871
 30
0.0
 10
178.7797707752574
 20
730.4123658744871
 30
0.0
 10
178.7797707752574
 20
721.8737406629484
 30
0.0
 10
178.7797707752574
 20
721.8737406629484
 30
0.0
 10
178.7797707752574
 20
721.8737406629484
 30
0.0
 10
176.7423797501243
 20
721.8737406629484
 30
0.0
 10
176.7423797501243
 20
721.8737406629484
 30
0.0
 10
176.7423797501243
 20
721.8737406629484
 30
0.0
 10
176.7423797501243
 20
735.7832509158828
 30
0.0
 10
176.7423797501243
 20
735.7832509158828
 30
0.0
 10
176.7423797501243
 20
735.7832509158828
 30
0.0
 10
178.7797707752574
 20
735.7832509158828
 30
0.0
 10
178.7797707752574
 20
735.7832509158828
 30
0.0
 10
178.7797707752574
 20
735.7832509158828
 30
0.0
 10
178.7797707752574
 20
734.0865761299822
 30
0.0
 10
178.7797707752574
 20
734.0865761299822
 30
0.0
 10
179.5417780400237
 20
735.2468530527699
 30
0.0
 10
181.0680947063085
 20
735.9536090354957
 30
0.0
 10
182.6795904324004
 20
735.9536090354957
 30
0.0
 10
184.0102254748029
 20
735.9536090354957
 30
0.0
 10
185.0277699189911
 20
735.6428205740365
 30
0.0
 10
186.0176887221643
 20
734.6529017708658
 30
0.0
  0
SPLINE
  5
D5
330
C2
100
AcDbEntity
  8
Layer 1
 62
    40
370
    13
100
AcDbSpline
210
0.0
220
0.0
230
1.0
 70
    11
 71
     3
 72
    47
 73
    43
 74
     0
 42
0.0000000001
 43
0.0000000001
 12
1.0
 22
0.0
 32
0.0
 13
1.0
 23
0.0
 33
0.0
 40
0.0
 40
0.0
 40
0.0
 40
0.0
 40
1.0
 40
1.0
 40
1.0
 40
2.0
 40
2.0
 40
2.0
 40
3.0
 40
3.0
 40
3.0
 40
4.0
 40
4.0
 40
4.0
 40
5.0
 40
5.0
 40
5.0
 40
6.0
 40
6.0
 40
6.0
 40
7.0
 40
7.0
 40
7.0
 40
8.0
 40
8.0
 40
8.0
 40
9.0
 40
9.0
 40
9.0
 40
10.0
 40
10.0
 40
10.0
 40
11.0
 40
11.0
 40
11.0
 40
12.0
 40
12.0
 40
12.0
 40
13.0
 40
13.0
 40
13.0
 40
14.0
 40
14.0
 40
14.0
 40
14.0
 10
198.294984018238
 20
731.3171056178533
 30
0.0
 10
198.294984018238
 20
731.3171056178533
 30
0.0
 10
198.294984018238
 20
721.8737406629484
 30
0.0
 10
198.294984018238
 20
721.8737406629484
 30
0.0
 10
198.294984018238
 20
721.8737406629484
 30
0.0
 10
196.259895129861
 20
721.8737406629484
 30
0.0
 10
196.259895129861
 20
721.8737406629484
 30
0.0
 10
196.259895129861
 20
721.8737406629484
 30
0.0
 10
196.259895129861
 20
723.202073568599
 30
0.0
 10
196.259895129861
 20
723.202073568599
 30
0.0
 10
195.1571716258609
 20
722.0993500646027
 30
0.0
 10
194.1096994039004
 20
721.7033825433323
 30
0.0
 10
192.2449686351385
 20
721.7033825433323
 30
0.0
 10
190.3226844475845
 20
721.7033825433323
 30
0.0
 10
189.2752122256243
 20
722.0440987825651
 30
0.0
 10
188.3152212002231
 20
722.9764641669485
 30
0.0
 10
187.6084652174919
 20
723.655594508657
 30
0.0
 10
187.2677489782629
 20
724.7007645938656
 30
0.0
 10
187.2677489782629
 20
725.8034880978619
 30
0.0
 10
187.2677489782629
 20
728.2644722852855
 30
0.0
 10
188.9943515419339
 20
729.8184145925827
 30
0.0
 10
192.1022361565393
 20
729.8184145925827
 30
0.0
 10
192.1022361565393
 20
729.8184145925827
 30
0.0
 10
196.259895129861
 20
729.8184145925827
 30
0.0
 10
196.259895129861
 20
729.8184145925827
 30
0.0
 10
196.259895129861
 20
729.8184145925827
 30
0.0
 10
196.259895129861
 20
731.1467474982333
 30
0.0
 10
196.259895129861
 20
731.1467474982333
 30
0.0
 10
196.259895129861
 20
733.1542107455956
 30
0.0
 10
195.2699763266881
 20
734.2016829675574
 30
0.0
 10
192.6961874384427
 20
734.2016829675574
 30
0.0
 10
190.9442613705039
 20
734.2016829675574
 30
0.0
 10
190.0395216271425
 20
733.7481620274993
 30
0.0
 10
189.1900331658169
 20
732.5901872414655
 30
0.0
 10
189.1900331658169
 20
732.5901872414655
 30
0.0
 10
187.8064489781268
 20
733.8609667283285
 30
0.0
 10
187.8064489781268
 20
733.8609667283285
 30
0.0
 10
189.0219771829499
 20
735.4724624544205
 30
0.0
 10
190.4354891484114
 20
735.9536090354957
 30
0.0
 10
192.7261152162147
 20
735.9536090354957
 30
0.0
 10
196.4855045315108
 20
735.9536090354957
 30
0.0
 10
198.294984018238
 20
734.3144876683828
 30
0.0
 10
198.294984018238
 20
731.3171056178533
 30
0.0
  0
SPLINE
  5
D6
330
C2
100
AcDbEntity
  8
Layer 1
 62
    40
370
    13
100
AcDbSpline
210
0.0
220
0.0
230
1.0
 70
    11
 71
     3
 72
    23
 73
    19
 74
     0
 42
0.0000000001
 43
0.0000000001
 12
1.0
 22
0.0
 32
0.0
 13
1.0
 23
0.0
 33
0.0
 40
0.0
 40
0.0
 40
0.0
 40
0.0
 40
1.0
 40
1.0
 40
1.0
 40
2.0
 40
2.0
 40
2.0
 40
3.0
 40
3.0
 40
3.0
 40
4.0
 40
4.0
 40
4.0
 40
5.0
 40
5.0
 40
5.0
 40
6.0
 40
6.0
 40
6.0
 40
6.0
 10
192.3853989769813
 20
728.2920979262992
 30
0.0
 10
190.2927566698131
 20
728.2920979262992
 30
0.0
 10
189.2475865846042
 20
727.4725372427446
 30
0.0
 10
189.2475865846042
 20
725.8311137388823
 30
0.0
 10
189.2475865846042
 20
724.2196180127903
 30
0.0
 10
190.2375053877771
 20
723.4576107480234
 30
0.0
 10
192.4705780367884
 20
723.4576107480234
 30
0.0
 10
193.6308549595757
 20
723.4576107480234
 30
0.0
 10
194.6483994037684
 20
723.5704154488521
 30
0.0
 10
195.5531391471294
 20
724.3899761324033
 30
0.0
 10
196.0342857282066
 20
724.8434970724613
 30
0.0
 10
196.259895129861
 20
725.633129978249
 30
0.0
 10
196.259895129861
 20
726.7934069010361
 30
0.0
 10
196.259895129861
 20
726.7934069010361
 30
0.0
 10
196.259895129861
 20
728.2920979262992
 30
0.0
 10
196.259895129861
 20
728.2920979262992
 30
0.0
 10
196.259895129861
 20
728.2920979262992
 30
0.0
 10
192.3853989769813
 20
728.2920979262992
 30
0.0
 10
192.3853989769813
 20
728.2920979262992
 30
0.0
  0
SPLINE
  5
D7
330
C2
100
AcDbEntity
  8
Layer 1
 62
    40
370
    13
100
AcDbSpline
210
0.0
220
0.0
230
1.0
 70
    11
 71
     3
 72
    41
 73
    37
 74
     0
 42
0.0000000001
 43
0.0000000001
 12
1.0
 22
0.0
 32
0.0
 13
1.0
 23
0.0
 33
0.0
 40
0.0
 40
0.0
 40
0.0
 40
0.0
 40
1.0
 40
1.0
 40
1.0
 40
2.0
 40
2.0
 40
2.0
 40
3.0
 40
3.0
 40
3.0
 40
4.0
 40
4.0
 40
4.0
 40
5.0
 40
5.0
 40
5.0
 40
6.0
 40
6.0
 40
6.0
 40
7.0
 40
7.0
 40
7.0
 40
8.0
 40
8.0
 40
8.0
 40
9.0
 40
9.0
 40
9.0
 40
10.0
 40
10.0
 40
10.0
 40
11.0
 40
11.0
 40
11.0
 40
12.0
 40
12.0
 40
12.0
 40
12.0
 10
213.2588729033874
 20
733.8908945060989
 30
0.0
 10
213.2588729033874
 20
733.8908945060989
 30
0.0
 10
211.8729865789456
 20
732.5901872414655
 30
0.0
 10
211.8729865789456
 20
732.5901872414655
 30
0.0
 10
210.8278164937374
 20
733.7481620274993
 30
0.0
 10
210.0082558101834
 20
734.1441295487698
 30
0.0
 10
208.6776207677813
 20
734.1441295487698
 30
0.0
 10
207.3216622211116
 20
734.1441295487698
 30
0.0
 10
206.1913130760956
 20
733.6077316856572
 30
0.0
 10
205.4546293155929
 20
732.5602594636952
 30
0.0
 10
204.8054267516535
 20
731.6555197203326
 30
0.0
 10
204.5498895722319
 20
730.5827239941032
 30
0.0
 10
204.5498895722319
 20
728.8284957894156
 30
0.0
 10
204.5498895722319
 20
727.076569721478
 30
0.0
 10
204.8054267516535
 20
726.0014718584952
 30
0.0
 10
205.4546293155929
 20
725.0967321151361
 30
0.0
 10
206.1913130760956
 20
724.0515620299275
 30
0.0
 10
207.3216622211116
 20
723.5128620300575
 30
0.0
 10
208.6776207677813
 20
723.5128620300575
 30
0.0
 10
210.0082558101834
 20
723.5128620300575
 30
0.0
 10
210.8278164937374
 20
723.9387573290984
 30
0.0
 10
211.8729865789456
 20
725.0967321151361
 30
0.0
 10
211.8729865789456
 20
725.0967321151361
 30
0.0
 10
213.2588729033874
 20
723.7683992094856
 30
0.0
 10
213.2588729033874
 20
723.7683992094856
 30
0.0
 10
211.8177352969103
 20
722.212154765428
 30
0.0
 10
210.5999049553349
 20
721.7033825433323
 30
0.0
 10
208.6776207677813
 20
721.7033825433323
 30
0.0
 10
205.171466495151
 20
721.7033825433323
 30
0.0
 10
202.5148006838504
 20
724.0791876709446
 30
0.0
 10
202.5148006838504
 20
728.8284957894156
 30
0.0
 10
202.5148006838504
 20
733.5778039078865
 30
0.0
 10
205.171466495151
 20
735.9536090354957
 30
0.0
 10
208.6776207677813
 20
735.9536090354957
 30
0.0
 10
210.5999049553349
 20
735.9536090354957
 30
0.0
 10
211.8177352969103
 20
735.4448368134032
 30
0.0
 10
213.2588729033874
 20
733.8908945060989
 30
0.0
  0
POLYLINE
  5
D8
330
C2
100
AcDbEntity
  8
Layer 1
 62
    40
370
    13
100
AcDb2dPolyline
 66
     1
 10
0.0
 20
0.0
 30
0.0
  0
VERTEX
  5
D9
330
D8
100
AcDbEntity
  8
Layer 1
 62
    40
370
    13
100
AcDbVertex
100
AcDb2dVertex
 10
219.1753643548998
 20
728.545332968974
 30
0.0
  0
VERTEX
  5
DA
330
D8
100
AcDbEntity
  8
Layer 1
 62
    40
370
    13
100
AcDbVertex
100
AcDb2dVertex
 10
225.4509891396536
 20
735.7832509158828
 30
0.0
  0
VERTEX
  5
DB
330
D8
100
AcDbEntity
  8
Layer 1
 62
    40
370
    13
100
AcDbVertex
100
AcDb2dVertex
 10
227.9948502501312
 20
735.7832509158828
 30
0.0
  0
VERTEX
  5
DC
330
D8
100
AcDbEntity
  8
Layer 1
 62
    40
370
    13
100
AcDbVertex
100
AcDb2dVertex
 10
223.2731677726784
 20
730.4676171565279
 30
0.0
  0
VERTEX
  5
DD
330
D8
100
AcDbEntity
  8
Layer 1
 62
    40
370
    13
100
AcDbVertex
100
AcDb2dVertex
 10
228.8144109336851
 20
721.8737406629484
 30
0.0
  0
VERTEX
  5
DE
330
D8
100
AcDbEntity
  8
Layer 1
 62
    40
370
    13
100
AcDbVertex
100
AcDb2dVertex
 10
226.2981754642273
 20
721.8737406629484
 30
0.0
  0
VERTEX
  5
DF
330
D8
100
AcDbEntity
  8
Layer 1
 62
    40
370
    13
100
AcDbVertex
100
AcDb2dVertex
 10
221.8895835849879
 20
728.998853909032
 30
0.0
  0
VERTEX
  5
E0
330
D8
100
AcDbEntity
  8
Layer 1
 62
    40
370
    13
100
AcDbVertex
100
AcDb2dVertex
 10
219.1753643548998
 20
725.8886671576699
 30
0.0
  0
VERTEX
  5
E1
330
D8
100
AcDbEntity
  8
Layer 1
 62
    40
370
    13
100
AcDbVertex
100
AcDb2dVertex
 10
219.1753643548998
 20
721.8737406629484
 30
0.0
  0
VERTEX
  5
E2
330
D8
100
AcDbEntity
  8
Layer 1
 62
    40
370
    13
100
AcDbVertex
100
AcDb2dVertex
 10
217.137973329767
 20
721.8737406629484
 30
0.0
  0
VERTEX
  5
E3
330
D8
100
AcDbEntity
  8
Layer 1
 62
    40
370
    13
100
AcDbVertex
100
AcDb2dVertex
 10
217.137973329767
 20
742.0036244186
 30
0.0
  0
VERTEX
  5
E4
330
D8
100
AcDbEntity
  8
Layer 1
 62
    40
370
    13
100
AcDbVertex
100
AcDb2dVertex
 10
219.1753643548998
 20
742.0036244186
 30
0.0
  0
VERTEX
  5
E5
330
D8
100
AcDbEntity
  8
Layer 1
 62
    40
370
    13
100
AcDbVertex
100
AcDb2dVertex
 10
219.1753643548998
 20
728.545332968974
 30
0.0
  0
SEQEND
  5
E6
330
D8
100
AcDbEntity
  8
Layer 1
 62
    40
370
    13
  0
SPLINE
  5
E7
330
C2
100
AcDbEntity
  8
Layer 1
 62
    40
370
    13
100
AcDbSpline
210
0.0
220
0.0
230
1.0
 70
    11
 71
     3
 72
    32
 73
    28
 74
     0
 42
0.0000000001
 43
0.0000000001
 12
1.0
 22
0.0
 32
0.0
 13
1.0
 23
0.0
 33
0.0
 40
0.0
 40
0.0
 40
0.0
 40
0.0
 40
1.0
 40
1.0
 40
1.0
 40
2.0
 40
2.0
 40
2.0
 40
3.0
 40
3.0
 40
3.0
 40
4.0
 40
4.0
 40
4.0
 40
5.0
 40
5.0
 40
5.0
 40
6.0
 40
6.0
 40
6.0
 40
7.0
 40
7.0
 40
7.0
 40
8.0
 40
8.0
 40
8.0
 40
9.0
 40
9.0
 40
9.0
 40
9.0
 10
241.8283899902613
 20
729.1968376696656
 30
0.0
 10
241.8283899902613
 20
729.1968376696656
 30
0.0
 10
241.8283899902613
 20
728.2920979262992
 30
0.0
 10
241.8283899902613
 20
728.2920979262992
 30
0.0
 10
241.8283899902613
 20
728.2920979262992
 30
0.0
 10
232.4425784541467
 20
728.2920979262992
 30
0.0
 10
232.4425784541467
 20
728.2920979262992
 30
0.0
 10
232.4425784541467
 20
725.2371624569782
 30
0.0
 10
233.856090419604
 20
723.4852363890403
 30
0.0
 10
236.5426840086762
 20
723.4852363890403
 30
0.0
 10
238.1541797347682
 20
723.4852363890403
 30
0.0
 10
239.0865451191534
 20
723.9663829701155
 30
0.0
 10
240.1892686231493
 20
725.0691064741153
 30
0.0
 10
240.1892686231493
 20
725.0691064741153
 30
0.0
 10
241.5751549475914
 20
723.8535782692938
 30
0.0
 10
241.5751549475914
 20
723.8535782692938
 30
0.0
 10
240.1616429821293
 20
722.440066303832
 30
0.0
 10
238.8333100764793
 20
721.7033825433323
 30
0.0
 10
236.4851305898886
 20
721.7033825433323
 30
0.0
 10
232.7809925566237
 20
721.7033825433323
 30
0.0
 10
230.4074895657655
 20
723.9088295513279
 30
0.0
 10
230.4074895657655
 20
728.8284957894156
 30
0.0
 10
230.4074895657655
 20
733.352194506229
 30
0.0
 10
232.5830087959933
 20
735.9536090354957
 30
0.0
 10
236.1190908463915
 20
735.9536090354957
 30
0.0
 10
239.7380498198448
 20
735.9536090354957
 30
0.0
 10
241.8283899902613
 20
733.3798201472497
 30
0.0
 10
241.8283899902613
 20
729.1968376696656
 30
0.0
  0
SPLINE
  5
E8
330
C2
100
AcDbEntity
  8
Layer 1
 62
    40
370
    13
100
AcDbSpline
210
0.0
220
0.0
230
1.0
 70
    11
 71
     3
 72
    20
 73
    16
 74
     0
 42
0.0000000001
 43
0.0000000001
 12
1.0
 22
0.0
 32
0.0
 13
1.0
 23
0.0
 33
0.0
 40
0.0
 40
0.0
 40
0.0
 40
0.0
 40
1.0
 40
1.0
 40
1.0
 40
2.0
 40
2.0
 40
2.0
 40
3.0
 40
3.0
 40
3.0
 40
4.0
 40
4.0
 40
4.0
 40
5.0
 40
5.0
 40
5.0
 40
5.0
 10
232.8661716164353
 20
732.1366663014074
 30
0.0
 10
232.5277575139541
 20
731.4022846776613
 30
0.0
 10
232.500131872934
 20
730.9487637376033
 30
0.0
 10
232.4425784541467
 20
729.8184145925827
 30
0.0
 10
232.4425784541467
 20
729.8184145925827
 30
0.0
 10
239.8209267429006
 20
729.8184145925827
 30
0.0
 10
239.8209267429006
 20
729.8184145925827
 30
0.0
 10
239.7380498198448
 20
730.9487637376033
 30
0.0
 10
239.7081220420731
 20
731.4022846776613
 30
0.0
 10
239.3697079395954
 20
732.1366663014074
 30
0.0
 10
238.7757566576917
 20
733.4097479250237
 30
0.0
 10
237.6154797349043
 20
734.2293086085747
 30
0.0
 10
236.1190908463915
 20
734.2293086085747
 30
0.0
 10
234.6203998211226
 20
734.2293086085747
 30
0.0
 10
233.4601228983349
 20
733.4097479250237
 30
0.0
 10
232.8661716164353
 20
732.1366663014074
 30
0.0
  0
SPLINE
  5
E9
330
C2
100
AcDbEntity
  8
Layer 1
 62
    40
370
    13
100
AcDbSpline
210
0.0
220
0.0
230
1.0
 70
    11
 71
     3
 72
    53
 73
    49
 74
     0
 42
0.0000000001
 43
0.0000000001
 12
1.0
 22
0.0
 32
0.0
 13
1.0
 23
0.0
 33
0.0
 40
0.0
 40
0.0
 40
0.0
 40
0.0
 40
1.0
 40
1.0
 40
1.0
 40
2.0
 40
2.0
 40
2.0
 40
3.0
 40
3.0
 40
3.0
 40
4.0
 40
4.0
 40
4.0
 40
5.0
 40
5.0
 40
5.0
 40
6.0
 40
6.0
 40
6.0
 40
7.0
 40
7.0
 40
7.0
 40
8.0
 40
8.0
 40
8.0
 40
9.0
 40
9.0
 40
9.0
 40
10.0
 40
10.0
 40
10.0
 40
11.0
 40
11.0
 40
11.0
 40
12.0
 40
12.0
 40
12.0
 40
13.0
 40
13.0
 40
13.0
 40
14.0
 40
14.0
 40
14.0
 40
15.0
 40
15.0
 40
15.0
 40
16.0
 40
16.0
 40
16.0
 40
16.0
 10
248.5391186210602
 20
735.7832509158828
 30
0.0
 10
248.5391186210602
 20
735.7832509158828
 30
0.0
 10
251.5065728938263
 20
735.7832509158828
 30
0.0
 10
251.5065728938263
 20
735.7832509158828
 30
0.0
 10
251.5065728938263
 20
735.7832509158828
 30
0.0
 10
251.5065728938263
 20
734.2293086085747
 30
0.0
 10
251.5065728938263
 20
734.2293086085747
 30
0.0
 10
251.5065728938263
 20
734.2293086085747
 30
0.0
 10
248.5391186210602
 20
734.2293086085747
 30
0.0
 10
248.5391186210602
 20
734.2293086085747
 30
0.0
 10
248.5391186210602
 20
734.2293086085747
 30
0.0
 10
248.5391186210602
 20
725.6630577560194
 30
0.0
 10
248.5391186210602
 20
725.6630577560194
 30
0.0
 10
248.5391186210602
 20
724.362350491386
 30
0.0
 10
249.1330699029636
 20
723.6256667308863
 30
0.0
 10
250.4337771675982
 20
723.6256667308863
 30
0.0
 10
250.4337771675982
 20
723.6256667308863
 30
0.0
 10
251.5065728938263
 20
723.6256667308863
 30
0.0
 10
251.5065728938263
 20
723.6256667308863
 30
0.0
 10
251.5065728938263
 20
723.6256667308863
 30
0.0
 10
251.5065728938263
 20
721.8737406629484
 30
0.0
 10
251.5065728938263
 20
721.8737406629484
 30
0.0
 10
251.5065728938263
 20
721.8737406629484
 30
0.0
 10
250.0654352873485
 20
721.8737406629484
 30
0.0
 10
250.0654352873485
 20
721.8737406629484
 30
0.0
 10
247.6896301597342
 20
721.8737406629484
 30
0.0
 10
246.5040297326829
 20
723.5427898078318
 30
0.0
 10
246.5040297326829
 20
725.6055043372282
 30
0.0
 10
246.5040297326829
 20
725.6055043372282
 30
0.0
 10
246.5040297326829
 20
734.2293086085747
 30
0.0
 10
246.5040297326829
 20
734.2293086085747
 30
0.0
 10
246.5040297326829
 20
734.2293086085747
 30
0.0
 10
244.749801527992
 20
734.2293086085747
 30
0.0
 10
244.749801527992
 20
734.2293086085747
 30
0.0
 10
244.749801527992
 20
734.2293086085747
 30
0.0
 10
244.749801527992
 20
735.7832509158828
 30
0.0
 10
244.749801527992
 20
735.7832509158828
 30
0.0
 10
244.749801527992
 20
735.7832509158828
 30
0.0
 10
246.5040297326829
 20
735.7832509158828
 30
0.0
 10
246.5040297326829
 20
735.7832509158828
 30
0.0
 10
246.5040297326829
 20
735.7832509158828
 30
0.0
 10
246.5040297326829
 20
740.0537145900249
 30
0.0
 10
246.5040297326829
 20
740.0537145900249
 30
0.0
 10
246.5040297326829
 20
740.0537145900249
 30
0.0
 10
248.5391186210602
 20
740.0537145900249
 30
0.0
 10
248.5391186210602
 20
740.0537145900249
 30
0.0
 10
248.5391186210602
 20
740.0537145900249
 30
0.0
 10
248.5391186210602
 20
735.7832509158828
 30
0.0
 10
248.5391186210602
 20
735.7832509158828
 30
0.0
  0
SPLINE
  5
EA
330
C2
100
AcDbEntity
  8
Layer 1
 62
    40
370
    13
100
AcDbSpline
210
0.0
220
0.0
230
1.0
 70
    11
 71
     3
 72
    53
 73
    49
 74
     0
 42
0.0000000001
 43
0.0000000001
 12
1.0
 22
0.0
 32
0.0
 13
1.0
 23
0.0
 33
0.0
 40
0.0
 40
0.0
 40
0.0
 40
0.0
 40
1.0
 40
1.0
 40
1.0
 40
2.0
 40
2.0
 40
2.0
 40
3.0
 40
3.0
 40
3.0
 40
4.0
 40
4.0
 40
4.0
 40
5.0
 40
5.0
 40
5.0
 40
6.0
 40
6.0
 40
6.0
 40
7.0
 40
7.0
 40
7.0
 40
8.0
 40
8.0
 40
8.0
 40
9.0
 40
9.0
 40
9.0
 40
10.0
 40
10.0
 40
10.0
 40
11.0
 40
11.0
 40
11.0
 40
12.0
 40
12.0
 40
12.0
 40
13.0
 40
13.0
 40
13.0
 40
14.0
 40
14.0
 40
14.0
 40
15.0
 40
15.0
 40
15.0
 40
16.0
 40
16.0
 40
16.0
 40
16.0
 10
264.856663916128
 20
734.4549180102323
 30
0.0
 10
264.856663916128
 20
734.4549180102323
 30
0.0
 10
263.5283310104774
 20
733.1265851045823
 30
0.0
 10
263.5283310104774
 20
733.1265851045823
 30
0.0
 10
262.5384122073052
 20
733.8908945060989
 30
0.0
 10
261.2653305836903
 20
734.2293086085747
 30
0.0
 10
259.8241929772125
 20
734.2293086085747
 30
0.0
 10
257.7891040888359
 20
734.2293086085747
 30
0.0
 10
256.7140062258562
 20
733.3798201472497
 30
0.0
 10
256.7140062258562
 20
731.9386825407742
 30
0.0
 10
256.7140062258562
 20
730.6955286949322
 30
0.0
 10
257.4783156273745
 20
730.0739517720114
 30
0.0
 10
259.2026160542932
 20
729.9035936523911
 30
0.0
 10
259.2026160542932
 20
729.9035936523911
 30
0.0
 10
261.3781352845172
 20
729.7056098917575
 30
0.0
 10
261.3781352845172
 20
729.7056098917575
 30
0.0
 10
263.8114938309197
 20
729.4800004901069
 30
0.0
 10
265.4782408390474
 20
728.5752607467408
 30
0.0
 10
265.4782408390474
 20
725.9462205764611
 30
0.0
 10
265.4782408390474
 20
723.2596269873898
 30
0.0
 10
263.217542549016
 20
721.7033825433323
 30
0.0
 10
259.8241929772125
 20
721.7033825433323
 30
0.0
 10
257.4483878496024
 20
721.7033825433323
 30
0.0
 10
255.6112827218558
 20
722.2420825431949
 30
0.0
 10
254.1125916965908
 20
723.7108457906946
 30
0.0
 10
254.1125916965908
 20
723.7108457906946
 30
0.0
 10
255.470852380013
 20
725.0691064741153
 30
0.0
 10
255.470852380013
 20
725.0691064741153
 30
0.0
 10
256.5436481062411
 20
723.9387573290984
 30
0.0
 10
258.0699647725256
 20
723.4576107480234
 30
0.0
 10
259.7965673361973
 20
723.4576107480234
 30
0.0
 10
262.1148190450159
 20
723.4576107480234
 30
0.0
 10
263.4984032327058
 20
724.2771714315779
 30
0.0
 10
263.4984032327058
 20
725.9162927986903
 30
0.0
 10
263.4984032327058
 20
727.1617487812861
 30
0.0
 10
262.8215750277465
 20
727.8109513452242
 30
0.0
 10
261.1801515238829
 20
727.9513816870699
 30
0.0
 10
261.1801515238829
 20
727.9513816870699
 30
0.0
 10
258.8918275928318
 20
728.1493654477032
 30
0.0
 10
258.8918275928318
 20
728.1493654477032
 30
0.0
 10
256.1776083627398
 20
728.3772769861075
 30
0.0
 10
254.7341686195143
 20
729.5651795499153
 30
0.0
 10
254.7341686195143
 20
731.8834312587366
 30
0.0
 10
254.7341686195143
 20
734.4272923692118
 30
0.0
 10
256.8544365676984
 20
735.9536090354957
 30
0.0
 10
259.8518186182324
 20
735.9536090354957
 30
0.0
 10
261.8592818655937
 20
735.9536090354957
 30
0.0
 10
263.5835822925131
 20
735.4724624544205
 30
0.0
 10
264.856663916128
 20
734.4549180102323
 30
0.0
  0
ENDBLK
  5
C5
330
C2
100
AcDbEntity
  8
0
100
AcDbBlockEnd
  0
BLOCK
  5
ED
330
EB
100
AcDbEntity
  8
0
100
AcDbBlockBegin
  2
block 5
 70
     0
 10
0.0
 20
0.0
 30
0.0
  3
block 5
  1

  0
SPLINE
  5
EF
330
EB
100
AcDbEntity
  8
Layer 1
 62
    40
370
    13
100
AcDbSpline
210
0.0
220
0.0
230
1.0
 70
    11
 71
     3
 72
    26
 73
    22
 74
     0
 42
0.0000000001
 43
0.0000000001
 12
1.0
 22
0.0
 32
0.0
 13
1.0
 23
0.0
 33
0.0
 40
0.0
 40
0.0
 40
0.0
 40
0.0
 40
1.0
 40
1.0
 40
1.0
 40
2.0
 40
2.0
 40
2.0
 40
3.0
 40
3.0
 40
3.0
 40
4.0
 40
4.0
 40
4.0
 40
5.0
 40
5.0
 40
5.0
 40
6.0
 40
6.0
 40
6.0
 40
7.0
 40
7.0
 40
7.0
 40
7.0
 10
29.11846380565441
 20
711.0572006143365
 30
0.0
 10
32.66140000268535
 20
711.0572006143365
 30
0.0
 10
35.11861435753979
 20
709.0285561378471
 30
0.0
 10
35.11861435753979
 20
705.6284191486798
 30
0.0
 10
35.11861435753979
 20
703.4853975020801
 30
0.0
 10
33.83290472244455
 20
701.799540026373
 30
0.0
 10
32.11862520898423
 20
701.1709823550892
 30
0.0
 10
34.06148680789088
 20
700.4566418062227
 30
0.0
 10
35.43297932056884
 20
698.7709565852899
 30
0.0
 10
35.43297932056884
 20
696.3421642681888
 30
0.0
 10
35.43297932056884
 20
692.65625660852
 30
0.0
 10
32.97576496571439
 20
690.7133950096134
 30
0.0
 10
29.37564018362831
 20
690.7133950096134
 30
0.0
 10
29.37564018362831
 20
690.7133950096134
 30
0.0
 10
21.46087781581534
 20
690.7133950096134
 30
0.0
 10
21.46087781581534
 20
690.7133950096134
 30
0.0
 10
21.46087781581534
 20
690.7133950096134
 30
0.0
 10
21.46087781581534
 20
711.0572006143365
 30
0.0
 10
21.46087781581534
 20
711.0572006143365
 30
0.0
 10
21.46087781581534
 20
711.0572006143365
 30
0.0
 10
29.11846380565441
 20
711.0572006143365
 30
0.0
 10
29.11846380565441
 20
711.0572006143365
 30
0.0
  0
SPLINE
  5
F0
330
EB
100
AcDbEntity
  8
Layer 1
 62
    40
370
    13
100
AcDbSpline
210
0.0
220
0.0
230
1.0
 70
    11
 71
     3
 72
    20
 73
    16
 74
     0
 42
0.0000000001
 43
0.0000000001
 12
1.0
 22
0.0
 32
0.0
 13
1.0
 23
0.0
 33
0.0
 40
0.0
 40
0.0
 40
0.0
 40
0.0
 40
1.0
 40
1.0
 40
1.0
 40
2.0
 40
2.0
 40
2.0
 40
3.0
 40
3.0
 40
3.0
 40
4.0
 40
4.0
 40
4.0
 40
5.0
 40
5.0
 40
5.0
 40
5.0
 10
23.63249375494257
 20
709.1141667606555
 30
0.0
 10
23.63249375494257
 20
709.1141667606555
 30
0.0
 10
23.63249375494257
 20
702.056716404347
 30
0.0
 10
23.63249375494257
 20
702.056716404347
 30
0.0
 10
23.63249375494257
 20
702.056716404347
 30
0.0
 10
28.94689805048897
 20
702.056716404347
 30
0.0
 10
28.94689805048897
 20
702.056716404347
 30
0.0
 10
31.20429686719893
 20
702.056716404347
 30
0.0
 10
32.94717067318682
 20
703.171032539051
 30
0.0
 10
32.94717067318682
 20
705.5998248561522
 30
0.0
 10
32.94717067318682
 20
708.0284449184791
 30
0.0
 10
31.20429686719893
 20
709.1141667606555
 30
0.0
 10
28.94689805048897
 20
709.1141667606555
 30
0.0
 10
28.94689805048897
 20
709.1141667606555
 30
0.0
 10
23.63249375494257
 20
709.1141667606555
 30
0.0
 10
23.63249375494257
 20
709.1141667606555
 30
0.0
  0
SPLINE
  5
F1
330
EB
100
AcDbEntity
  8
Layer 1
 62
    40
370
    13
100
AcDbSpline
210
0.0
220
0.0
230
1.0
 70
    11
 71
     3
 72
    20
 73
    16
 74
     0
 42
0.0000000001
 43
0.0000000001
 12
1.0
 22
0.0
 32
0.0
 13
1.0
 23
0.0
 33
0.0
 40
0.0
 40
0.0
 40
0.0
 40
0.0
 40
1.0
 40
1.0
 40
1.0
 40
2.0
 40
2.0
 40
2.0
 40
3.0
 40
3.0
 40
3.0
 40
4.0
 40
4.0
 40
4.0
 40
5.0
 40
5.0
 40
5.0
 40
5.0
 10
23.63249375494257
 20
700.1138548054403
 30
0.0
 10
23.63249375494257
 20
700.1138548054403
 30
0.0
 10
23.63249375494257
 20
692.65625660852
 30
0.0
 10
23.63249375494257
 20
692.65625660852
 30
0.0
 10
23.63249375494257
 20
692.65625660852
 30
0.0
 10
29.1754801359353
 20
692.65625660852
 30
0.0
 10
29.1754801359353
 20
692.65625660852
 30
0.0
 10
31.68988307584489
 20
692.65625660852
 30
0.0
 10
33.2613633814416
 20
694.1135319987807
 30
0.0
 10
33.2613633814416
 20
696.399352853244
 30
0.0
 10
33.2613633814416
 20
698.6851737077072
 30
0.0
 10
31.68988307584489
 20
700.1138548054403
 30
0.0
 10
29.1754801359353
 20
700.1138548054403
 30
0.0
 10
29.1754801359353
 20
700.1138548054403
 30
0.0
 10
23.63249375494257
 20
700.1138548054403
 30
0.0
 10
23.63249375494257
 20
700.1138548054403
 30
0.0
  0
POLYLINE
  5
F2
330
EB
100
AcDbEntity
  8
Layer 1
 62
    40
370
    13
100
AcDb2dPolyline
 66
     1
 10
0.0
 20
0.0
 30
0.0
  0
VERTEX
  5
F3
330
F2
100
AcDbEntity
  8
Layer 1
 62
    40
370
    13
100
AcDbVertex
100
AcDb2dVertex
 10
46.86363388585354
 20
693.9421384983895
 30
0.0
  0
VERTEX
  5
F4
330
F2
100
AcDbEntity
  8
Layer 1
 62
    40
370
    13
100
AcDbVertex
100
AcDb2dVertex
 10
38.74888372512181
 20
693.9421384983895
 30
0.0
  0
VERTEX
  5
F5
330
F2
100
AcDbEntity
  8
Layer 1
 62
    40
370
    13
100
AcDbVertex
100
AcDb2dVertex
 10
38.74888372512181
 20
695.7993894744877
 30
0.0
  0
VERTEX
  5
F6
330
F2
100
AcDbEntity
  8
Layer 1
 62
    40
370
    13
100
AcDbVertex
100
AcDb2dVertex
 10
46.09210475193183
 20
711.0572006143365
 30
0.0
  0
VERTEX
  5
F7
330
F2
100
AcDbEntity
  8
Layer 1
 62
    40
370
    13
100
AcDbVertex
100
AcDb2dVertex
 10
48.29214272881239
 20
711.0572006143365
 30
0.0
  0
VERTEX
  5
F8
330
F2
100
AcDbEntity
  8
Layer 1
 62
    40
370
    13
100
AcDbVertex
100
AcDb2dVertex
 10
40.94892170200235
 20
695.7993894744877
 30
0.0
  0
VERTEX
  5
F9
330
F2
100
AcDbEntity
  8
Layer 1
 62
    40
370
    13
100
AcDbVertex
100
AcDb2dVertex
 10
46.86363388585354
 20
695.7993894744877
 30
0.0
  0
VERTEX
  5
FA
330
F2
100
AcDbEntity
  8
Layer 1
 62
    40
370
    13
100
AcDbVertex
100
AcDb2dVertex
 10
46.86363388585354
 20
701.571130195701
 30
0.0
  0
VERTEX
  5
FB
330
F2
100
AcDbEntity
  8
Layer 1
 62
    40
370
    13
100
AcDbVertex
100
AcDb2dVertex
 10
48.89227836234291
 20
701.571130195701
 30
0.0
  0
VERTEX
  5
FC
330
F2
100
AcDbEntity
  8
Layer 1
 62
    40
370
    13
100
AcDbVertex
100
AcDb2dVertex
 10
48.89227836234291
 20
695.7993894744877
 30
0.0
  0
VERTEX
  5
FD
330
F2
100
AcDbEntity
  8
Layer 1
 62
    40
370
    13
100
AcDbVertex
100
AcDb2dVertex
 10
51.37808700972492
 20
695.7993894744877
 30
0.0
  0
VERTEX
  5
FE
330
F2
100
AcDbEntity
  8
Layer 1
 62
    40
370
    13
100
AcDbVertex
100
AcDb2dVertex
 10
51.37808700972492
 20
693.9421384983895
 30
0.0
  0
VERTEX
  5
FF
330
F2
100
AcDbEntity
  8
Layer 1
 62
    40
370
    13
100
AcDbVertex
100
AcDb2dVertex
 10
48.89227836234291
 20
693.9421384983895
 30
0.0
  0
VERTEX
  5
100
330
F2
100
AcDbEntity
  8
Layer 1
 62
    40
370
    13
100
AcDbVertex
100
AcDb2dVertex
 10
48.89227836234291
 20
690.7133950096134
 30
0.0
  0
VERTEX
  5
101
330
F2
100
AcDbEntity
  8
Layer 1
 62
    40
370
    13
100
AcDbVertex
100
AcDb2dVertex
 10
46.86363388585354
 20
690.7133950096134
 30
0.0
  0
VERTEX
  5
102
330
F2
100
AcDbEntity
  8
Layer 1
 62
    40
370
    13
100
AcDbVertex
100
AcDb2dVertex
 10
46.86363388585354
 20
693.9421384983895
 30
0.0
  0
SEQEND
  5
103
330
F2
100
AcDbEntity
  8
Layer 1
 62
    40
370
    13
  0
SPLINE
  5
104
330
EB
100
AcDbEntity
  8
Layer 1
 62
    40
370
    13
100
AcDbSpline
210
0.0
220
0.0
230
1.0
 70
    11
 71
     3
 72
    29
 73
    25
 74
     0
 42
0.0000000001
 43
0.0000000001
 12
1.0
 22
0.0
 32
0.0
 13
1.0
 23
0.0
 33
0.0
 40
0.0
 40
0.0
 40
0.0
 40
0.0
 40
1.0
 40
1.0
 40
1.0
 40
2.0
 40
2.0
 40
2.0
 40
3.0
 40
3.0
 40
3.0
 40
4.0
 40
4.0
 40
4.0
 40
5.0
 40
5.0
 40
5.0
 40
6.0
 40
6.0
 40
6.0
 40
7.0
 40
7.0
 40
7.0
 40
8.0
 40
8.0
 40
8.0
 40
8.0
 10
53.97913410108855
 20
696.3135699756613
 30
0.0
 10
53.97913410108855
 20
698.6851737077072
 30
0.0
 10
55.32203232123894
 20
700.2852483058315
 30
0.0
 10
57.03631183469926
 20
701.2567652326719
 30
0.0
 10
55.43623723657497
 20
702.1710935744572
 30
0.0
 10
54.37910968692606
 20
703.6567910024712
 30
0.0
 10
54.37910968692606
 20
705.7712183565434
 30
0.0
 10
54.37910968692606
 20
708.9427732602643
 30
0.0
 10
56.75071341897205
 20
711.2285941147276
 30
0.0
 10
59.97928465297393
 20
711.2285941147276
 30
0.0
 10
63.20802814175008
 20
711.2285941147276
 30
0.0
 10
65.57963187379606
 20
708.9427732602643
 30
0.0
 10
65.57963187379606
 20
705.7712183565434
 30
0.0
 10
65.57963187379606
 20
703.6567910024712
 30
0.0
 10
64.55092636190047
 20
702.1710935744572
 30
0.0
 10
62.95085176377618
 20
701.2567652326719
 30
0.0
 10
64.66530353201075
 20
700.2852483058315
 30
0.0
 10
65.97960745963357
 20
698.6851737077072
 30
0.0
 10
65.97960745963357
 20
696.3135699756613
 30
0.0
 10
65.97960745963357
 20
692.8850109487406
 30
0.0
 10
63.35099960438794
 20
690.5420015092221
 30
0.0
 10
59.97928465297393
 20
690.5420015092221
 30
0.0
 10
56.60774195633418
 20
690.5420015092221
 30
0.0
 10
53.97913410108855
 20
692.8850109487406
 30
0.0
 10
53.97913410108855
 20
696.3135699756613
 30
0.0
  0
SPLINE
  5
105
330
EB
100
AcDbEntity
  8
Layer 1
 62
    40
370
    13
100
AcDbSpline
210
0.0
220
0.0
230
1.0
 70
    11
 71
     3
 72
    17
 73
    13
 74
     0
 42
0.0000000001
 43
0.0000000001
 12
1.0
 22
0.0
 32
0.0
 13
1.0
 23
0.0
 33
0.0
 40
0.0
 40
0.0
 40
0.0
 40
0.0
 40
1.0
 40
1.0
 40
1.0
 40
2.0
 40
2.0
 40
2.0
 40
3.0
 40
3.0
 40
3.0
 40
4.0
 40
4.0
 40
4.0
 40
4.0
 10
63.92236869061664
 20
696.3421642681888
 30
0.0
 10
63.92236869061664
 20
698.5993908301244
 30
0.0
 10
62.20808917715632
 20
700.3138425983591
 30
0.0
 10
59.97928465297393
 20
700.3138425983591
 30
0.0
 10
57.75065238356581
 20
700.3138425983591
 30
0.0
 10
56.0363728701055
 20
698.5993908301244
 30
0.0
 10
56.0363728701055
 20
696.3421642681888
 30
0.0
 10
56.0363728701055
 20
694.0849377062531
 30
0.0
 10
57.75065238356581
 20
692.3706581927928
 30
0.0
 10
59.97928465297393
 20
692.3706581927928
 30
0.0
 10
62.20808917715632
 20
692.3706581927928
 30
0.0
 10
63.92236869061664
 20
694.0849377062531
 30
0.0
 10
63.92236869061664
 20
696.3421642681888
 30
0.0
  0
SPLINE
  5
106
330
EB
100
AcDbEntity
  8
Layer 1
 62
    40
370
    13
100
AcDbSpline
210
0.0
220
0.0
230
1.0
 70
    11
 71
     3
 72
    17
 73
    13
 74
     0
 42
0.0000000001
 43
0.0000000001
 12
1.0
 22
0.0
 32
0.0
 13
1.0
 23
0.0
 33
0.0
 40
0.0
 40
0.0
 40
0.0
 40
0.0
 40
1.0
 40
1.0
 40
1.0
 40
2.0
 40
2.0
 40
2.0
 40
3.0
 40
3.0
 40
3.0
 40
4.0
 40
4.0
 40
4.0
 40
4.0
 10
63.52239310477913
 20
705.7426240640158
 30
0.0
 10
63.52239310477913
 20
707.8570514180878
 30
0.0
 10
62.06511771451844
 20
709.399937431157
 30
0.0
 10
59.97928465297393
 20
709.399937431157
 30
0.0
 10
57.89345159142942
 20
709.399937431157
 30
0.0
 10
56.436348455943
 20
707.8570514180878
 30
0.0
 10
56.436348455943
 20
705.7426240640158
 30
0.0
 10
56.436348455943
 20
703.5997746721904
 30
0.0
 10
57.89345159142942
 20
702.1139049894022
 30
0.0
 10
59.97928465297393
 20
702.1139049894022
 30
0.0
 10
62.06511771451844
 20
702.1139049894022
 30
0.0
 10
63.52239310477913
 20
703.5997746721904
 30
0.0
 10
63.52239310477913
 20
705.7426240640158
 30
0.0
  0
ENDBLK
  5
EE
330
EB
100
AcDbEntity
  8
0
100
AcDbBlockEnd
  0
BLOCK
  5
109
330
107
100
AcDbEntity
  8
0
100
AcDbBlockBegin
  2
block 6
 70
     0
 10
0.0
 20
0.0
 30
0.0
  3
block 6
  1

  0
POLYLINE
  5
10B
330
107
100
AcDbEntity
  8
Layer 1
 62
    40
370
    13
100
AcDb2dPolyline
 66
     1
 10
0.0
 20
0.0
 30
0.0
  0
VERTEX
  5
10C
330
10B
100
AcDbEntity
  8
Layer 1
 62
    40
370
    13
100
AcDbVertex
100
AcDb2dVertex
 10
94.01714248721599
 20
364.6783067655729
 30
0.0
  0
VERTEX
  5
10D
330
10B
100
AcDbEntity
  8
Layer 1
 62
    40
370
    13
100
AcDbVertex
100
AcDb2dVertex
 10
94.01714248721599
 20
564.6782436459115
 30
0.0
  0
SEQEND
  5
10E
330
10B
100
AcDbEntity
  8
Layer 1
 62
    40
370
    13
  0
POLYLINE
  5
10F
330
107
100
AcDbEntity
  8
Layer 1
 62
    40
370
    13
100
AcDb2dPolyline
 66
     1
 10
0.0
 20
0.0
 30
0.0
  0
VERTEX
  5
110
330
10F
100
AcDbEntity
  8
Layer 1
 62
    40
370
    13
100
AcDbVertex
100
AcDb2dVertex
 10
294.0170578357078
 20
364.6783067655729
 30
0.0
  0
VERTEX
  5
111
330
10F
100
AcDbEntity
  8
Layer 1
 62
    40
370
    13
100
AcDbVertex
100
AcDb2dVertex
 10
94.01714248721599
 20
364.6783067655729
 30
0.0
  0
SEQEND
  5
112
330
10F
100
AcDbEntity
  8
Layer 1
 62
    40
370
    13
  0
POLYLINE
  5
113
330
107
100
AcDbEntity
  8
Layer 1
 62
    40
370
    13
100
AcDb2dPolyline
 66
     1
 10
0.0
 20
0.0
 30
0.0
  0
VERTEX
  5
114
330
113
100
AcDbEntity
  8
Layer 1
 62
    40
370
    13
100
AcDbVertex
100
AcDb2dVertex
 10
294.0170578357078
 20
289.6781043510547
 30
0.0
  0
VERTEX
  5
115
330
113
100
AcDbEntity
  8
Layer 1
 62
    40
370
    13
100
AcDbVertex
100
AcDb2dVertex
 10
294.0170578357078
 20
364.6783067655729
 30
0.0
  0
SEQEND
  5
116
330
113
100
AcDbEntity
  8
Layer 1
 62
    40
370
    13
  0
POLYLINE
  5
117
330
107
100
AcDbEntity
  8
Layer 1
 62
    40
370
    13
100
AcDb2dPolyline
 66
     1
 10
0.0
 20
0.0
 30
0.0
  0
VERTEX
  5
118
330
117
100
AcDbEntity
  8
Layer 1
 62
    40
370
    13
100
AcDbVertex
100
AcDb2dVertex
 10
19.01694007269781
 20
289.6781043510547
 30
0.0
  0
VERTEX
  5
119
330
117
100
AcDbEntity
  8
Layer 1
 62
    40
370
    13
100
AcDbVertex
100
AcDb2dVertex
 10
294.0170578357078
 20
289.6781043510547
 30
0.0
  0
SEQEND
  5
11A
330
117
100
AcDbEntity
  8
Layer 1
 62
    40
370
    13
  0
POLYLINE
  5
11B
330
107
100
AcDbEntity
  8
Layer 1
 62
    40
370
    13
100
AcDb2dPolyline
 66
     1
 10
0.0
 20
0.0
 30
0.0
  0
VERTEX
  5
11C
330
11B
100
AcDbEntity
  8
Layer 1
 62
    40
370
    13
100
AcDbVertex
100
AcDb2dVertex
 10
19.01694007269781
 20
564.6782436459115
 30
0.0
  0
VERTEX
  5
11D
330
11B
100
AcDbEntity
  8
Layer 1
 62
    40
370
    13
100
AcDbVertex
100
AcDb2dVertex
 10
19.01694007269781
 20
289.6781043510547
 30
0.0
  0
SEQEND
  5
11E
330
11B
100
AcDbEntity
  8
Layer 1
 62
    40
370
    13
  0
POLYLINE
  5
11F
330
107
100
AcDbEntity
  8
Layer 1
 62
    40
370
    13
100
AcDb2dPolyline
 66
     1
 10
0.0
 20
0.0
 30
0.0
  0
VERTEX
  5
120
330
11F
100
AcDbEntity
  8
Layer 1
 62
    40
370
    13
100
AcDbVertex
100
AcDb2dVertex
 10
94.01714248721599
 20
564.6782436459115
 30
0.0
  0
VERTEX
  5
121
330
11F
100
AcDbEntity
  8
Layer 1
 62
    40
370
    13
100
AcDbVertex
100
AcDb2dVertex
 10
19.01694007269781
 20
564.6782436459115
 30
0.0
  0
SEQEND
  5
122
330
11F
100
AcDbEntity
  8
Layer 1
 62
    40
370
    13
  0
POLYLINE
  5
123
330
107
100
AcDbEntity
  8
Layer 1
 62
    40
370
    13
100
AcDb2dPolyline
 66
     1
 10
0.0
 20
0.0
 30
0.0
  0
VERTEX
  5
124
330
123
100
AcDbEntity
  8
Layer 1
 62
    40
370
    13
100
AcDbVertex
100
AcDb2dVertex
 10
56.51721353473116
 20
534.678050714501
 30
0.0
  0
VERTEX
  5
125
330
123
100
AcDbEntity
  8
Layer 1
 62
    40
370
    13
100
AcDbVertex
100
AcDb2dVertex
 10
57.88282785323742
 20
534.8127970116677
 30
0.0
  0
VERTEX
  5
126
330
123
100
AcDbEntity
  8
Layer 1
 62
    40
370
    13
100
AcDbVertex
100
AcDb2dVertex
 10
59.19586140190005
 20
535.2110931134562
 30
0.0
  0
VERTEX
  5
127
330
123
100
AcDbEntity
  8
Layer 1
 62
    40
370
    13
100
AcDbVertex
100
AcDb2dVertex
 10
60.4058865955537
 20
535.8580820455861
 30
0.0
  0
VERTEX
  5
128
330
123
100
AcDbEntity
  8
Layer 1
 62
    40
370
    13
100
AcDbVertex
100
AcDb2dVertex
 10
61.46669609100248
 20
536.7283992925474
 30
0.0
  0
VERTEX
  5
129
330
123
100
AcDbEntity
  8
Layer 1
 62
    40
370
    13
100
AcDbVertex
100
AcDb2dVertex
 10
62.33733631566546
 20
537.7891872561494
 30
0.0
  0
VERTEX
  5
12A
330
123
100
AcDbEntity
  8
Layer 1
 62
    40
370
    13
100
AcDbVertex
100
AcDb2dVertex
 10
62.98434677964216
 20
538.9995784911983
 30
0.0
  0
VERTEX
  5
12B
330
123
100
AcDbEntity
  8
Layer 1
 62
    40
370
    13
100
AcDbVertex
100
AcDb2dVertex
 10
63.38262134958382
 20
540.3125905080142
 30
0.0
  0
VERTEX
  5
12C
330
123
100
AcDbEntity
  8
Layer 1
 62
    40
370
    13
100
AcDbVertex
100
AcDb2dVertex
 10
63.51702313720213
 20
541.6782263583672
 30
0.0
  0
VERTEX
  5
12D
330
123
100
AcDbEntity
  8
Layer 1
 62
    40
370
    13
100
AcDbVertex
100
AcDb2dVertex
 10
63.38262134958382
 20
543.0438191450266
 30
0.0
  0
VERTEX
  5
12E
330
123
100
AcDbEntity
  8
Layer 1
 62
    40
370
    13
100
AcDbVertex
100
AcDb2dVertex
 10
62.98434677964216
 20
544.3568311618425
 30
0.0
  0
VERTEX
  5
12F
330
123
100
AcDbEntity
  8
Layer 1
 62
    40
370
    13
100
AcDbVertex
100
AcDb2dVertex
 10
62.33733631566546
 20
545.5672223968915
 30
0.0
  0
VERTEX
  5
130
330
123
100
AcDbEntity
  8
Layer 1
 62
    40
370
    13
100
AcDbVertex
100
AcDb2dVertex
 10
61.46669609100248
 20
546.628053424187
 30
0.0
  0
VERTEX
  5
131
330
123
100
AcDbEntity
  8
Layer 1
 62
    40
370
    13
100
AcDbVertex
100
AcDb2dVertex
 10
60.4058865955537
 20
547.4986721170033
 30
0.0
  0
VERTEX
  5
132
330
123
100
AcDbEntity
  8
Layer 1
 62
    40
370
    13
100
AcDbVertex
100
AcDb2dVertex
 10
59.19586140190005
 20
548.1453165395847
 30
0.0
  0
VERTEX
  5
133
330
123
100
AcDbEntity
  8
Layer 1
 62
    40
370
    13
100
AcDbVertex
100
AcDb2dVertex
 10
57.88282785323742
 20
548.5436126413731
 30
0.0
  0
VERTEX
  5
134
330
123
100
AcDbEntity
  8
Layer 1
 62
    40
370
    13
100
AcDbVertex
100
AcDb2dVertex
 10
56.51721353473116
 20
548.6783589385399
 30
0.0
  0
VERTEX
  5
135
330
123
100
AcDbEntity
  8
Layer 1
 62
    40
370
    13
100
AcDbVertex
100
AcDb2dVertex
 10
55.15125470667639
 20
548.5436126413731
 30
0.0
  0
VERTEX
  5
136
330
123
100
AcDbEntity
  8
Layer 1
 62
    40
370
    13
100
AcDbVertex
100
AcDb2dVertex
 10
53.83822115801376
 20
548.1453165395847
 30
0.0
  0
VERTEX
  5
137
330
123
100
AcDbEntity
  8
Layer 1
 62
    40
370
    13
100
AcDbVertex
100
AcDb2dVertex
 10
52.6281959643601
 20
547.4986721170033
 30
0.0
  0
VERTEX
  5
138
330
123
100
AcDbEntity
  8
Layer 1
 62
    40
370
    13
100
AcDbVertex
100
AcDb2dVertex
 10
51.56738646891133
 20
546.628053424187
 30
0.0
  0
VERTEX
  5
139
330
123
100
AcDbEntity
  8
Layer 1
 62
    40
370
    13
100
AcDbVertex
100
AcDb2dVertex
 10
50.69672471240156
 20
545.5672223968915
 30
0.0
  0
VERTEX
  5
13A
330
123
100
AcDbEntity
  8
Layer 1
 62
    40
370
    13
100
AcDbVertex
100
AcDb2dVertex
 10
50.04973578027165
 20
544.3568311618425
 30
0.0
  0
VERTEX
  5
13B
330
123
100
AcDbEntity
  8
Layer 1
 62
    40
370
    13
100
AcDbVertex
100
AcDb2dVertex
 10
49.65146121032998
 20
543.0438191450266
 30
0.0
  0
VERTEX
  5
13C
330
123
100
AcDbEntity
  8
Layer 1
 62
    40
370
    13
100
AcDbVertex
100
AcDb2dVertex
 10
49.51703789086489
 20
541.6782263583672
 30
0.0
  0
VERTEX
  5
13D
330
123
100
AcDbEntity
  8
Layer 1
 62
    40
370
    13
100
AcDbVertex
100
AcDb2dVertex
 10
49.65146121032998
 20
540.3125905080142
 30
0.0
  0
VERTEX
  5
13E
330
123
100
AcDbEntity
  8
Layer 1
 62
    40
370
    13
100
AcDbVertex
100
AcDb2dVertex
 10
50.04973578027165
 20
538.9995784911983
 30
0.0
  0
VERTEX
  5
13F
330
123
100
AcDbEntity
  8
Layer 1
 62
    40
370
    13
100
AcDbVertex
100
AcDb2dVertex
 10
50.69672471240156
 20
537.7891872561494
 30
0.0
  0
VERTEX
  5
140
330
123
100
AcDbEntity
  8
Layer 1
 62
    40
370
    13
100
AcDbVertex
100
AcDb2dVertex
 10
51.56738646891133
 20
536.7283992925474
 30
0.0
  0
VERTEX
  5
141
330
123
100
AcDbEntity
  8
Layer 1
 62
    40
370
    13
100
AcDbVertex
100
AcDb2dVertex
 10
52.6281959643601
 20
535.8580820455861
 30
0.0
  0
VERTEX
  5
142
330
123
100
AcDbEntity
  8
Layer 1
 62
    40
370
    13
100
AcDbVertex
100
AcDb2dVertex
 10
53.83822115801376
 20
535.2110931134562
 30
0.0
  0
VERTEX
  5
143
330
123
100
AcDbEntity
  8
Layer 1
 62
    40
370
    13
100
AcDbVertex
100
AcDb2dVertex
 10
55.15125470667639
 20
534.8127970116677
 30
0.0
  0
VERTEX
  5
144
330
123
100
AcDbEntity
  8
Layer 1
 62
    40
370
    13
100
AcDbVertex
100
AcDb2dVertex
 10
56.51721353473116
 20
534.678050714501
 30
0.0
  0
SEQEND
  5
145
330
123
100
AcDbEntity
  8
Layer 1
 62
    40
370
    13
  0
POLYLINE
  5
146
330
107
100
AcDbEntity
  8
Layer 1
 62
    40
370
    13
100
AcDb2dPolyline
 66
     1
 10
0.0
 20
0.0
 30
0.0
  0
VERTEX
  5
147
330
146
100
AcDbEntity
  8
Layer 1
 62
    40
370
    13
100
AcDbVertex
100
AcDb2dVertex
 10
56.51721353473116
 20
462.6782250217803
 30
0.0
  0
VERTEX
  5
148
330
146
100
AcDbEntity
  8
Layer 1
 62
    40
370
    13
100
AcDbVertex
100
AcDb2dVertex
 10
57.88282785323742
 20
462.8126268093987
 30
0.0
  0
VERTEX
  5
149
330
146
100
AcDbEntity
  8
Layer 1
 62
    40
370
    13
100
AcDbVertex
100
AcDb2dVertex
 10
59.19586140190005
 20
463.2112674207357
 30
0.0
  0
VERTEX
  5
14A
330
146
100
AcDbEntity
  8
Layer 1
 62
    40
370
    13
100
AcDbVertex
100
AcDb2dVertex
 10
60.4058865955537
 20
463.857911843317
 30
0.0
  0
VERTEX
  5
14B
330
146
100
AcDbEntity
  8
Layer 1
 62
    40
370
    13
100
AcDbVertex
100
AcDb2dVertex
 10
61.46669609100248
 20
464.7285305361332
 30
0.0
  0
VERTEX
  5
14C
330
146
100
AcDbEntity
  8
Layer 1
 62
    40
370
    13
100
AcDbVertex
100
AcDb2dVertex
 10
62.33733631566546
 20
465.7893615634288
 30
0.0
  0
VERTEX
  5
14D
330
146
100
AcDbEntity
  8
Layer 1
 62
    40
370
    13
100
AcDbVertex
100
AcDb2dVertex
 10
62.98434677964216
 20
466.9993652252357
 30
0.0
  0
VERTEX
  5
14E
330
146
100
AcDbEntity
  8
Layer 1
 62
    40
370
    13
100
AcDbVertex
100
AcDb2dVertex
 10
63.38262134958382
 20
468.3124203057451
 30
0.0
  0
VERTEX
  5
14F
330
146
100
AcDbEntity
  8
Layer 1
 62
    40
370
    13
100
AcDbVertex
100
AcDb2dVertex
 10
63.51702313720213
 20
469.6783576019531
 30
0.0
  0
VERTEX
  5
150
330
146
100
AcDbEntity
  8
Layer 1
 62
    40
370
    13
100
AcDbVertex
100
AcDb2dVertex
 10
63.38262134958382
 20
471.0439934523061
 30
0.0
  0
VERTEX
  5
151
330
146
100
AcDbEntity
  8
Layer 1
 62
    40
370
    13
100
AcDbVertex
100
AcDb2dVertex
 10
62.98434677964216
 20
472.357005469122
 30
0.0
  0
VERTEX
  5
152
330
146
100
AcDbEntity
  8
Layer 1
 62
    40
370
    13
100
AcDbVertex
100
AcDb2dVertex
 10
62.33733631566546
 20
473.5670521946224
 30
0.0
  0
VERTEX
  5
153
330
146
100
AcDbEntity
  8
Layer 1
 62
    40
370
    13
100
AcDbVertex
100
AcDb2dVertex
 10
61.46669609100248
 20
474.6278401582244
 30
0.0
  0
VERTEX
  5
154
330
146
100
AcDbEntity
  8
Layer 1
 62
    40
370
    13
100
AcDbVertex
100
AcDb2dVertex
 10
60.4058865955537
 20
475.4985019147342
 30
0.0
  0
VERTEX
  5
155
330
146
100
AcDbEntity
  8
Layer 1
 62
    40
370
    13
100
AcDbVertex
100
AcDb2dVertex
 10
59.19586140190005
 20
476.1454908468641
 30
0.0
  0
VERTEX
  5
156
330
146
100
AcDbEntity
  8
Layer 1
 62
    40
370
    13
100
AcDbVertex
100
AcDb2dVertex
 10
57.88282785323742
 20
476.5437869486526
 30
0.0
  0
VERTEX
  5
157
330
146
100
AcDbEntity
  8
Layer 1
 62
    40
370
    13
100
AcDbVertex
100
AcDb2dVertex
 10
56.51721353473116
 20
476.6781887362708
 30
0.0
  0
VERTEX
  5
158
330
146
100
AcDbEntity
  8
Layer 1
 62
    40
370
    13
100
AcDbVertex
100
AcDb2dVertex
 10
55.15125470667639
 20
476.5437869486526
 30
0.0
  0
VERTEX
  5
159
330
146
100
AcDbEntity
  8
Layer 1
 62
    40
370
    13
100
AcDbVertex
100
AcDb2dVertex
 10
53.83822115801376
 20
476.1454908468641
 30
0.0
  0
VERTEX
  5
15A
330
146
100
AcDbEntity
  8
Layer 1
 62
    40
370
    13
100
AcDbVertex
100
AcDb2dVertex
 10
52.6281959643601
 20
475.4985019147342
 30
0.0
  0
VERTEX
  5
15B
330
146
100
AcDbEntity
  8
Layer 1
 62
    40
370
    13
100
AcDbVertex
100
AcDb2dVertex
 10
51.56738646891133
 20
474.6278401582244
 30
0.0
  0
VERTEX
  5
15C
330
146
100
AcDbEntity
  8
Layer 1
 62
    40
370
    13
100
AcDbVertex
100
AcDb2dVertex
 10
50.69672471240156
 20
473.5670521946224
 30
0.0
  0
VERTEX
  5
15D
330
146
100
AcDbEntity
  8
Layer 1
 62
    40
370
    13
100
AcDbVertex
100
AcDb2dVertex
 10
50.04973578027165
 20
472.357005469122
 30
0.0
  0
VERTEX
  5
15E
330
146
100
AcDbEntity
  8
Layer 1
 62
    40
370
    13
100
AcDbVertex
100
AcDb2dVertex
 10
49.65146121032998
 20
471.0439934523061
 30
0.0
  0
VERTEX
  5
15F
330
146
100
AcDbEntity
  8
Layer 1
 62
    40
370
    13
100
AcDbVertex
100
AcDb2dVertex
 10
49.51703789086489
 20
469.6783576019531
 30
0.0
  0
VERTEX
  5
160
330
146
100
AcDbEntity
  8
Layer 1
 62
    40
370
    13
100
AcDbVertex
100
AcDb2dVertex
 10
49.65146121032998
 20
468.3124203057451
 30
0.0
  0
VERTEX
  5
161
330
146
100
AcDbEntity
  8
Layer 1
 62
    40
370
    13
100
AcDbVertex
100
AcDb2dVertex
 10
50.04973578027165
 20
466.9993652252357
 30
0.0
  0
VERTEX
  5
162
330
146
100
AcDbEntity
  8
Layer 1
 62
    40
370
    13
100
AcDbVertex
100
AcDb2dVertex
 10
50.69672471240156
 20
465.7893615634288
 30
0.0
  0
VERTEX
  5
163
330
146
100
AcDbEntity
  8
Layer 1
 62
    40
370
    13
100
AcDbVertex
100
AcDb2dVertex
 10
51.56738646891133
 20
464.7285305361332
 30
0.0
  0
VERTEX
  5
164
330
146
100
AcDbEntity
  8
Layer 1
 62
    40
370
    13
100
AcDbVertex
100
AcDb2dVertex
 10
52.6281959643601
 20
463.857911843317
 30
0.0
  0
VERTEX
  5
165
330
146
100
AcDbEntity
  8
Layer 1
 62
    40
370
    13
100
AcDbVertex
100
AcDb2dVertex
 10
53.83822115801376
 20
463.2112674207357
 30
0.0
  0
VERTEX
  5
166
330
146
100
AcDbEntity
  8
Layer 1
 62
    40
370
    13
100
AcDbVertex
100
AcDb2dVertex
 10
55.15125470667639
 20
462.8126268093987
 30
0.0
  0
VERTEX
  5
167
330
146
100
AcDbEntity
  8
Layer 1
 62
    40
370
    13
100
AcDbVertex
100
AcDb2dVertex
 10
56.51721353473116
 20
462.6782250217803
 30
0.0
  0
SEQEND
  5
168
330
146
100
AcDbEntity
  8
Layer 1
 62
    40
370
    13
  0
POLYLINE
  5
169
330
107
100
AcDbEntity
  8
Layer 1
 62
    40
370
    13
100
AcDb2dPolyline
 66
     1
 10
0.0
 20
0.0
 30
0.0
  0
VERTEX
  5
16A
330
169
100
AcDbEntity
  8
Layer 1
 62
    40
370
    13
100
AcDbVertex
100
AcDb2dVertex
 10
56.51721353473116
 20
320.1782237010686
 30
0.0
  0
VERTEX
  5
16B
330
169
100
AcDbEntity
  8
Layer 1
 62
    40
370
    13
100
AcDbVertex
100
AcDb2dVertex
 10
57.88282785323742
 20
320.3126254886869
 30
0.0
  0
VERTEX
  5
16C
330
169
100
AcDbEntity
  8
Layer 1
 62
    40
370
    13
100
AcDbVertex
100
AcDb2dVertex
 10
59.19586140190005
 20
320.7109000586285
 30
0.0
  0
VERTEX
  5
16D
330
169
100
AcDbEntity
  8
Layer 1
 62
    40
370
    13
100
AcDbVertex
100
AcDb2dVertex
 10
60.4058865955537
 20
321.3579105226052
 30
0.0
  0
VERTEX
  5
16E
330
169
100
AcDbEntity
  8
Layer 1
 62
    40
370
    13
100
AcDbVertex
100
AcDb2dVertex
 10
61.46669609100248
 20
322.2285507472682
 30
0.0
  0
VERTEX
  5
16F
330
169
100
AcDbEntity
  8
Layer 1
 62
    40
370
    13
100
AcDbVertex
100
AcDb2dVertex
 10
62.33733631566546
 20
323.289360242717
 30
0.0
  0
VERTEX
  5
170
330
169
100
AcDbEntity
  8
Layer 1
 62
    40
370
    13
100
AcDbVertex
100
AcDb2dVertex
 10
62.98434677964216
 20
324.4993854363706
 30
0.0
  0
VERTEX
  5
171
330
169
100
AcDbEntity
  8
Layer 1
 62
    40
370
    13
100
AcDbVertex
100
AcDb2dVertex
 10
63.38262134958382
 20
325.8124189850333
 30
0.0
  0
VERTEX
  5
172
330
169
100
AcDbEntity
  8
Layer 1
 62
    40
370
    13
100
AcDbVertex
100
AcDb2dVertex
 10
63.51702313720213
 20
327.178377813088
 30
0.0
  0
VERTEX
  5
173
330
169
100
AcDbEntity
  8
Layer 1
 62
    40
370
    13
100
AcDbVertex
100
AcDb2dVertex
 10
63.38262134958382
 20
328.5439921315943
 30
0.0
  0
VERTEX
  5
174
330
169
100
AcDbEntity
  8
Layer 1
 62
    40
370
    13
100
AcDbVertex
100
AcDb2dVertex
 10
62.98434677964216
 20
329.8570256802569
 30
0.0
  0
VERTEX
  5
175
330
169
100
AcDbEntity
  8
Layer 1
 62
    40
370
    13
100
AcDbVertex
100
AcDb2dVertex
 10
62.33733631566546
 20
331.0670508739106
 30
0.0
  0
VERTEX
  5
176
330
169
100
AcDbEntity
  8
Layer 1
 62
    40
370
    13
100
AcDbVertex
100
AcDb2dVertex
 10
61.46669609100248
 20
332.1278603693594
 30
0.0
  0
VERTEX
  5
177
330
169
100
AcDbEntity
  8
Layer 1
 62
    40
370
    13
100
AcDbVertex
100
AcDb2dVertex
 10
60.4058865955537
 20
332.9985005940223
 30
0.0
  0
VERTEX
  5
178
330
169
100
AcDbEntity
  8
Layer 1
 62
    40
370
    13
100
AcDbVertex
100
AcDb2dVertex
 10
59.19586140190005
 20
333.645511057999
 30
0.0
  0
VERTEX
  5
179
330
169
100
AcDbEntity
  8
Layer 1
 62
    40
370
    13
100
AcDbVertex
100
AcDb2dVertex
 10
57.88282785323742
 20
334.0437856279407
 30
0.0
  0
VERTEX
  5
17A
330
169
100
AcDbEntity
  8
Layer 1
 62
    40
370
    13
100
AcDbVertex
100
AcDb2dVertex
 10
56.51721353473116
 20
334.1782089474058
 30
0.0
  0
VERTEX
  5
17B
330
169
100
AcDbEntity
  8
Layer 1
 62
    40
370
    13
100
AcDbVertex
100
AcDb2dVertex
 10
55.15125470667639
 20
334.0437856279407
 30
0.0
  0
VERTEX
  5
17C
330
169
100
AcDbEntity
  8
Layer 1
 62
    40
370
    13
100
AcDbVertex
100
AcDb2dVertex
 10
53.83822115801376
 20
333.645511057999
 30
0.0
  0
VERTEX
  5
17D
330
169
100
AcDbEntity
  8
Layer 1
 62
    40
370
    13
100
AcDbVertex
100
AcDb2dVertex
 10
52.6281959643601
 20
332.9985005940223
 30
0.0
  0
VERTEX
  5
17E
330
169
100
AcDbEntity
  8
Layer 1
 62
    40
370
    13
100
AcDbVertex
100
AcDb2dVertex
 10
51.56738646891133
 20
332.1278603693594
 30
0.0
  0
VERTEX
  5
17F
330
169
100
AcDbEntity
  8
Layer 1
 62
    40
370
    13
100
AcDbVertex
100
AcDb2dVertex
 10
50.69672471240156
 20
331.0670508739106
 30
0.0
  0
VERTEX
  5
180
330
169
100
AcDbEntity
  8
Layer 1
 62
    40
370
    13
100
AcDbVertex
100
AcDb2dVertex
 10
50.04973578027165
 20
329.8570256802569
 30
0.0
  0
VERTEX
  5
181
330
169
100
AcDbEntity
  8
Layer 1
 62
    40
370
    13
100
AcDbVertex
100
AcDb2dVertex
 10
49.65146121032998
 20
328.5439921315943
 30
0.0
  0
VERTEX
  5
182
330
169
100
AcDbEntity
  8
Layer 1
 62
    40
370
    13
100
AcDbVertex
100
AcDb2dVertex
 10
49.51703789086489
 20
327.178377813088
 30
0.0
  0
VERTEX
  5
183
330
169
100
AcDbEntity
  8
Layer 1
 62
    40
370
    13
100
AcDbVertex
100
AcDb2dVertex
 10
49.65146121032998
 20
325.8124189850333
 30
0.0
  0
VERTEX
  5
184
330
169
100
AcDbEntity
  8
Layer 1
 62
    40
370
    13
100
AcDbVertex
100
AcDb2dVertex
 10
50.04973578027165
 20
324.4993854363706
 30
0.0
  0
VERTEX
  5
185
330
169
100
AcDbEntity
  8
Layer 1
 62
    40
370
    13
100
AcDbVertex
100
AcDb2dVertex
 10
50.69672471240156
 20
323.289360242717
 30
0.0
  0
VERTEX
  5
186
330
169
100
AcDbEntity
  8
Layer 1
 62
    40
370
    13
100
AcDbVertex
100
AcDb2dVertex
 10
51.56738646891133
 20
322.2285507472682
 30
0.0
  0
VERTEX
  5
187
330
169
100
AcDbEntity
  8
Layer 1
 62
    40
370
    13
100
AcDbVertex
100
AcDb2dVertex
 10
52.6281959643601
 20
321.3579105226052
 30
0.0
  0
VERTEX
  5
188
330
169
100
AcDbEntity
  8
Layer 1
 62
    40
370
    13
100
AcDbVertex
100
AcDb2dVertex
 10
53.83822115801376
 20
320.7109000586285
 30
0.0
  0
VERTEX
  5
189
330
169
100
AcDbEntity
  8
Layer 1
 62
    40
370
    13
100
AcDbVertex
100
AcDb2dVertex
 10
55.15125470667639
 20
320.3126254886869
 30
0.0
  0
VERTEX
  5
18A
330
169
100
AcDbEntity
  8
Layer 1
 62
    40
370
    13
100
AcDbVertex
100
AcDb2dVertex
 10
56.51721353473116
 20
320.1782237010686
 30
0.0
  0
SEQEND
  5
18B
330
169
100
AcDbEntity
  8
Layer 1
 62
    40
370
    13
  0
POLYLINE
  5
18C
330
107
100
AcDbEntity
  8
Layer 1
 62
    40
370
    13
100
AcDb2dPolyline
 66
     1
 10
0.0
 20
0.0
 30
0.0
  0
VERTEX
  5
18D
330
18C
100
AcDbEntity
  8
Layer 1
 62
    40
370
    13
100
AcDbVertex
100
AcDb2dVertex
 10
199.017214855443
 20
320.1782237010686
 30
0.0
  0
VERTEX
  5
18E
330
18C
100
AcDbEntity
  8
Layer 1
 62
    40
370
    13
100
AcDbVertex
100
AcDb2dVertex
 10
200.3828076421024
 20
320.3126254886869
 30
0.0
  0
VERTEX
  5
18F
330
18C
100
AcDbEntity
  8
Layer 1
 62
    40
370
    13
100
AcDbVertex
100
AcDb2dVertex
 10
201.6958411907651
 20
320.7109000586285
 30
0.0
  0
VERTEX
  5
190
330
18C
100
AcDbEntity
  8
Layer 1
 62
    40
370
    13
100
AcDbVertex
100
AcDb2dVertex
 10
202.9058663844187
 20
321.3579105226052
 30
0.0
  0
VERTEX
  5
191
330
18C
100
AcDbEntity
  8
Layer 1
 62
    40
370
    13
100
AcDbVertex
100
AcDb2dVertex
 10
203.9666758798675
 20
322.2285507472682
 30
0.0
  0
VERTEX
  5
192
330
18C
100
AcDbEntity
  8
Layer 1
 62
    40
370
    13
100
AcDbVertex
100
AcDb2dVertex
 10
204.8373376363773
 20
323.289360242717
 30
0.0
  0
VERTEX
  5
193
330
18C
100
AcDbEntity
  8
Layer 1
 62
    40
370
    13
100
AcDbVertex
100
AcDb2dVertex
 10
205.4843265685072
 20
324.4993854363706
 30
0.0
  0
VERTEX
  5
194
330
18C
100
AcDbEntity
  8
Layer 1
 62
    40
370
    13
100
AcDbVertex
100
AcDb2dVertex
 10
205.8826226702956
 20
325.8124189850333
 30
0.0
  0
VERTEX
  5
195
330
18C
100
AcDbEntity
  8
Layer 1
 62
    40
370
    13
100
AcDbVertex
100
AcDb2dVertex
 10
206.0170244579139
 20
327.178377813088
 30
0.0
  0
VERTEX
  5
196
330
18C
100
AcDbEntity
  8
Layer 1
 62
    40
370
    13
100
AcDbVertex
100
AcDb2dVertex
 10
205.8826226702956
 20
328.5439921315943
 30
0.0
  0
VERTEX
  5
197
330
18C
100
AcDbEntity
  8
Layer 1
 62
    40
370
    13
100
AcDbVertex
100
AcDb2dVertex
 10
205.4843265685072
 20
329.8570256802569
 30
0.0
  0
VERTEX
  5
198
330
18C
100
AcDbEntity
  8
Layer 1
 62
    40
370
    13
100
AcDbVertex
100
AcDb2dVertex
 10
204.8373376363773
 20
331.0670508739106
 30
0.0
  0
VERTEX
  5
199
330
18C
100
AcDbEntity
  8
Layer 1
 62
    40
370
    13
100
AcDbVertex
100
AcDb2dVertex
 10
203.9666758798675
 20
332.1278603693594
 30
0.0
  0
VERTEX
  5
19A
330
18C
100
AcDbEntity
  8
Layer 1
 62
    40
370
    13
100
AcDbVertex
100
AcDb2dVertex
 10
202.9058663844187
 20
332.9985005940223
 30
0.0
  0
VERTEX
  5
19B
330
18C
100
AcDbEntity
  8
Layer 1
 62
    40
370
    13
100
AcDbVertex
100
AcDb2dVertex
 10
201.6958411907651
 20
333.645511057999
 30
0.0
  0
VERTEX
  5
19C
330
18C
100
AcDbEntity
  8
Layer 1
 62
    40
370
    13
100
AcDbVertex
100
AcDb2dVertex
 10
200.3828076421024
 20
334.0437856279407
 30
0.0
  0
VERTEX
  5
19D
330
18C
100
AcDbEntity
  8
Layer 1
 62
    40
370
    13
100
AcDbVertex
100
AcDb2dVertex
 10
199.017214855443
 20
334.1782089474058
 30
0.0
  0
VERTEX
  5
19E
330
18C
100
AcDbEntity
  8
Layer 1
 62
    40
370
    13
100
AcDbVertex
100
AcDb2dVertex
 10
197.6512560273882
 20
334.0437856279407
 30
0.0
  0
VERTEX
  5
19F
330
18C
100
AcDbEntity
  8
Layer 1
 62
    40
370
    13
100
AcDbVertex
100
AcDb2dVertex
 10
196.3382009468788
 20
333.645511057999
 30
0.0
  0
VERTEX
  5
1A0
330
18C
100
AcDbEntity
  8
Layer 1
 62
    40
370
    13
100
AcDbVertex
100
AcDb2dVertex
 10
195.1281757532251
 20
332.9985005940223
 30
0.0
  0
VERTEX
  5
1A1
330
18C
100
AcDbEntity
  8
Layer 1
 62
    40
370
    13
100
AcDbVertex
100
AcDb2dVertex
 10
194.0673877896232
 20
332.1278603693594
 30
0.0
  0
VERTEX
  5
1A2
330
18C
100
AcDbEntity
  8
Layer 1
 62
    40
370
    13
100
AcDbVertex
100
AcDb2dVertex
 10
193.1967260331134
 20
331.0670508739106
 30
0.0
  0
VERTEX
  5
1A3
330
18C
100
AcDbEntity
  8
Layer 1
 62
    40
370
    13
100
AcDbVertex
100
AcDb2dVertex
 10
192.5497371009835
 20
329.8570256802569
 30
0.0
  0
VERTEX
  5
1A4
330
18C
100
AcDbEntity
  8
Layer 1
 62
    40
370
    13
100
AcDbVertex
100
AcDb2dVertex
 10
192.151440999195
 20
328.5439921315943
 30
0.0
  0
VERTEX
  5
1A5
330
18C
100
AcDbEntity
  8
Layer 1
 62
    40
370
    13
100
AcDbVertex
100
AcDb2dVertex
 10
192.0170392115767
 20
327.178377813088
 30
0.0
  0
VERTEX
  5
1A6
330
18C
100
AcDbEntity
  8
Layer 1
 62
    40
370
    13
100
AcDbVertex
100
AcDb2dVertex
 10
192.151440999195
 20
325.8124189850333
 30
0.0
  0
VERTEX
  5
1A7
330
18C
100
AcDbEntity
  8
Layer 1
 62
    40
370
    13
100
AcDbVertex
100
AcDb2dVertex
 10
192.5497371009835
 20
324.4993854363706
 30
0.0
  0
VERTEX
  5
1A8
330
18C
100
AcDbEntity
  8
Layer 1
 62
    40
370
    13
100
AcDbVertex
100
AcDb2dVertex
 10
193.1967260331134
 20
323.289360242717
 30
0.0
  0
VERTEX
  5
1A9
330
18C
100
AcDbEntity
  8
Layer 1
 62
    40
370
    13
100
AcDbVertex
100
AcDb2dVertex
 10
194.0673877896232
 20
322.2285507472682
 30
0.0
  0
VERTEX
  5
1AA
330
18C
100
AcDbEntity
  8
Layer 1
 62
    40
370
    13
100
AcDbVertex
100
AcDb2dVertex
 10
195.1281757532251
 20
321.3579105226052
 30
0.0
  0
VERTEX
  5
1AB
330
18C
100
AcDbEntity
  8
Layer 1
 62
    40
370
    13
100
AcDbVertex
100
AcDb2dVertex
 10
196.3382009468788
 20
320.7109000586285
 30
0.0
  0
VERTEX
  5
1AC
330
18C
100
AcDbEntity
  8
Layer 1
 62
    40
370
    13
100
AcDbVertex
100
AcDb2dVertex
 10
197.6512560273882
 20
320.3126254886869
 30
0.0
  0
VERTEX
  5
1AD
330
18C
100
AcDbEntity
  8
Layer 1
 62
    40
370
    13
100
AcDbVertex
100
AcDb2dVertex
 10
199.017214855443
 20
320.1782237010686
 30
0.0
  0
SEQEND
  5
1AE
330
18C
100
AcDbEntity
  8
Layer 1
 62
    40
370
    13
  0
POLYLINE
  5
1AF
330
107
100
AcDbEntity
  8
Layer 1
 62
    40
370
    13
100
AcDb2dPolyline
 66
     1
 10
0.0
 20
0.0
 30
0.0
  0
VERTEX
  5
1B0
330
1AF
100
AcDbEntity
  8
Layer 1
 62
    40
370
    13
100
AcDbVertex
100
AcDb2dVertex
 10
271.0170405481635
 20
320.1782237010686
 30
0.0
  0
VERTEX
  5
1B1
330
1AF
100
AcDbEntity
  8
Layer 1
 62
    40
370
    13
100
AcDbVertex
100
AcDb2dVertex
 10
272.382633334823
 20
320.3126254886869
 30
0.0
  0
VERTEX
  5
1B2
330
1AF
100
AcDbEntity
  8
Layer 1
 62
    40
370
    13
100
AcDbVertex
100
AcDb2dVertex
 10
273.6956453516388
 20
320.7109000586285
 30
0.0
  0
VERTEX
  5
1B3
330
1AF
100
AcDbEntity
  8
Layer 1
 62
    40
370
    13
100
AcDbVertex
100
AcDb2dVertex
 10
274.9060365866878
 20
321.3579105226052
 30
0.0
  0
VERTEX
  5
1B4
330
1AF
100
AcDbEntity
  8
Layer 1
 62
    40
370
    13
100
AcDbVertex
100
AcDb2dVertex
 10
275.9668245502898
 20
322.2285507472682
 30
0.0
  0
VERTEX
  5
1B5
330
1AF
100
AcDbEntity
  8
Layer 1
 62
    40
370
    13
100
AcDbVertex
100
AcDb2dVertex
 10
276.837141797251
 20
323.289360242717
 30
0.0
  0
VERTEX
  5
1B6
330
1AF
100
AcDbEntity
  8
Layer 1
 62
    40
370
    13
100
AcDbVertex
100
AcDb2dVertex
 10
277.4841307293809
 20
324.4993854363706
 30
0.0
  0
VERTEX
  5
1B7
330
1AF
100
AcDbEntity
  8
Layer 1
 62
    40
370
    13
100
AcDbVertex
100
AcDb2dVertex
 10
277.8824268311694
 20
325.8124189850333
 30
0.0
  0
VERTEX
  5
1B8
330
1AF
100
AcDbEntity
  8
Layer 1
 62
    40
370
    13
100
AcDbVertex
100
AcDb2dVertex
 10
278.0171731283362
 20
327.178377813088
 30
0.0
  0
VERTEX
  5
1B9
330
1AF
100
AcDbEntity
  8
Layer 1
 62
    40
370
    13
100
AcDbVertex
100
AcDb2dVertex
 10
277.8824268311694
 20
328.5439921315943
 30
0.0
  0
VERTEX
  5
1BA
330
1AF
100
AcDbEntity
  8
Layer 1
 62
    40
370
    13
100
AcDbVertex
100
AcDb2dVertex
 10
277.4841307293809
 20
329.8570256802569
 30
0.0
  0
VERTEX
  5
1BB
330
1AF
100
AcDbEntity
  8
Layer 1
 62
    40
370
    13
100
AcDbVertex
100
AcDb2dVertex
 10
276.837141797251
 20
331.0670508739106
 30
0.0
  0
VERTEX
  5
1BC
330
1AF
100
AcDbEntity
  8
Layer 1
 62
    40
370
    13
100
AcDbVertex
100
AcDb2dVertex
 10
275.9668245502898
 20
332.1278603693594
 30
0.0
  0
VERTEX
  5
1BD
330
1AF
100
AcDbEntity
  8
Layer 1
 62
    40
370
    13
100
AcDbVertex
100
AcDb2dVertex
 10
274.9060365866878
 20
332.9985005940223
 30
0.0
  0
VERTEX
  5
1BE
330
1AF
100
AcDbEntity
  8
Layer 1
 62
    40
370
    13
100
AcDbVertex
100
AcDb2dVertex
 10
273.6956453516388
 20
333.645511057999
 30
0.0
  0
VERTEX
  5
1BF
330
1AF
100
AcDbEntity
  8
Layer 1
 62
    40
370
    13
100
AcDbVertex
100
AcDb2dVertex
 10
272.382633334823
 20
334.0437856279407
 30
0.0
  0
VERTEX
  5
1C0
330
1AF
100
AcDbEntity
  8
Layer 1
 62
    40
370
    13
100
AcDbVertex
100
AcDb2dVertex
 10
271.0170405481635
 20
334.1782089474058
 30
0.0
  0
VERTEX
  5
1C1
330
1AF
100
AcDbEntity
  8
Layer 1
 62
    40
370
    13
100
AcDbVertex
100
AcDb2dVertex
 10
269.6514046978104
 20
334.0437856279407
 30
0.0
  0
VERTEX
  5
1C2
330
1AF
100
AcDbEntity
  8
Layer 1
 62
    40
370
    13
100
AcDbVertex
100
AcDb2dVertex
 10
268.3383926809946
 20
333.645511057999
 30
0.0
  0
VERTEX
  5
1C3
330
1AF
100
AcDbEntity
  8
Layer 1
 62
    40
370
    13
100
AcDbVertex
100
AcDb2dVertex
 10
267.1280014459456
 20
332.9985005940223
 30
0.0
  0
VERTEX
  5
1C4
330
1AF
100
AcDbEntity
  8
Layer 1
 62
    40
370
    13
100
AcDbVertex
100
AcDb2dVertex
 10
266.0672134823437
 20
332.1278603693594
 30
0.0
  0
VERTEX
  5
1C5
330
1AF
100
AcDbEntity
  8
Layer 1
 62
    40
370
    13
100
AcDbVertex
100
AcDb2dVertex
 10
265.1965517258339
 20
331.0670508739106
 30
0.0
  0
VERTEX
  5
1C6
330
1AF
100
AcDbEntity
  8
Layer 1
 62
    40
370
    13
100
AcDbVertex
100
AcDb2dVertex
 10
264.5499073032525
 20
329.8570256802569
 30
0.0
  0
VERTEX
  5
1C7
330
1AF
100
AcDbEntity
  8
Layer 1
 62
    40
370
    13
100
AcDbVertex
100
AcDb2dVertex
 10
264.151611201464
 20
328.5439921315943
 30
0.0
  0
VERTEX
  5
1C8
330
1AF
100
AcDbEntity
  8
Layer 1
 62
    40
370
    13
100
AcDbVertex
100
AcDb2dVertex
 10
264.0168649042972
 20
327.178377813088
 30
0.0
  0
VERTEX
  5
1C9
330
1AF
100
AcDbEntity
  8
Layer 1
 62
    40
370
    13
100
AcDbVertex
100
AcDb2dVertex
 10
264.151611201464
 20
325.8124189850333
 30
0.0
  0
VERTEX
  5
1CA
330
1AF
100
AcDbEntity
  8
Layer 1
 62
    40
370
    13
100
AcDbVertex
100
AcDb2dVertex
 10
264.5499073032525
 20
324.4993854363706
 30
0.0
  0
VERTEX
  5
1CB
330
1AF
100
AcDbEntity
  8
Layer 1
 62
    40
370
    13
100
AcDbVertex
100
AcDb2dVertex
 10
265.1965517258339
 20
323.289360242717
 30
0.0
  0
VERTEX
  5
1CC
330
1AF
100
AcDbEntity
  8
Layer 1
 62
    40
370
    13
100
AcDbVertex
100
AcDb2dVertex
 10
266.0672134823437
 20
322.2285507472682
 30
0.0
  0
VERTEX
  5
1CD
330
1AF
100
AcDbEntity
  8
Layer 1
 62
    40
370
    13
100
AcDbVertex
100
AcDb2dVertex
 10
267.1280014459456
 20
321.3579105226052
 30
0.0
  0
VERTEX
  5
1CE
330
1AF
100
AcDbEntity
  8
Layer 1
 62
    40
370
    13
100
AcDbVertex
100
AcDb2dVertex
 10
268.3383926809946
 20
320.7109000586285
 30
0.0
  0
VERTEX
  5
1CF
330
1AF
100
AcDbEntity
  8
Layer 1
 62
    40
370
    13
100
AcDbVertex
100
AcDb2dVertex
 10
269.6514046978104
 20
320.3126254886869
 30
0.0
  0
VERTEX
  5
1D0
330
1AF
100
AcDbEntity
  8
Layer 1
 62
    40
370
    13
100
AcDbVertex
100
AcDb2dVertex
 10
271.0170405481635
 20
320.1782237010686
 30
0.0
  0
SEQEND
  5
1D1
330
1AF
100
AcDbEntity
  8
Layer 1
 62
    40
370
    13
  0
ENDBLK
  5
10A
330
107
100
AcDbEntity
  8
0
100
AcDbBlockEnd
  0
BLOCK
  5
1D4
330
1D2
100
AcDbEntity
  8
0
100
AcDbBlockBegin
  2
block 7
 70
     0
 10
0.0
 20
0.0
 30
0.0
  3
block 7
  1

  0
POLYLINE
  5
1D6
330
1D2
100
AcDbEntity
  8
Layer 1
 62
    40
370
    13
100
AcDb2dPolyline
 66
     1
 10
0.0
 20
0.0
 30
0.0
  0
VERTEX
  5
1D7
330
1D6
100
AcDbEntity
  8
Layer 1
 62
    40
370
    13
100
AcDbVertex
100
AcDb2dVertex
 10
294.0169717083206
 20
652.6935861667679
 30
0.0
  0
VERTEX
  5
1D8
330
1D6
100
AcDbEntity
  8
Layer 1
 62
    40
370
    13
100
AcDbVertex
100
AcDb2dVertex
 10
94.01703482798207
 20
652.6935861667679
 30
0.0
  0
SEQEND
  5
1D9
330
1D6
100
AcDbEntity
  8
Layer 1
 62
    40
370
    13
  0
POLYLINE
  5
1DA
330
1D2
100
AcDbEntity
  8
Layer 1
 62
    40
370
    13
100
AcDb2dPolyline
 66
     1
 10
0.0
 20
0.0
 30
0.0
  0
VERTEX
  5
1DB
330
1DA
100
AcDbEntity
  8
Layer 1
 62
    40
370
    13
100
AcDbVertex
100
AcDb2dVertex
 10
294.0169717083206
 20
647.6936329616376
 30
0.0
  0
VERTEX
  5
1DC
330
1DA
100
AcDbEntity
  8
Layer 1
 62
    40
370
    13
100
AcDbVertex
100
AcDb2dVertex
 10
94.01703482798207
 20
647.6936329616376
 30
0.0
  0
SEQEND
  5
1DD
330
1DA
100
AcDbEntity
  8
Layer 1
 62
    40
370
    13
  0
POLYLINE
  5
1DE
330
1D2
100
AcDbEntity
  8
Layer 1
 62
    40
370
    13
100
AcDb2dPolyline
 66
     1
 10
0.0
 20
0.0
 30
0.0
  0
VERTEX
  5
1DF
330
1DE
100
AcDbEntity
  8
Layer 1
 62
    40
370
    13
100
AcDbVertex
100
AcDb2dVertex
 10
294.0169717083206
 20
652.6935861667679
 30
0.0
  0
VERTEX
  5
1E0
330
1DE
100
AcDbEntity
  8
Layer 1
 62
    40
370
    13
100
AcDbVertex
100
AcDb2dVertex
 10
294.0169717083206
 20
647.6936329616376
 30
0.0
  0
SEQEND
  5
1E1
330
1DE
100
AcDbEntity
  8
Layer 1
 62
    40
370
    13
  0
POLYLINE
  5
1E2
330
1D2
100
AcDbEntity
  8
Layer 1
 62
    40
370
    13
100
AcDb2dPolyline
 66
     1
 10
0.0
 20
0.0
 30
0.0
  0
VERTEX
  5
1E3
330
1E2
100
AcDbEntity
  8
Layer 1
 62
    40
370
    13
100
AcDbVertex
100
AcDb2dVertex
 10
94.01703482798207
 20
652.6935861667679
 30
0.0
  0
VERTEX
  5
1E4
330
1E2
100
AcDbEntity
  8
Layer 1
 62
    40
370
    13
100
AcDbVertex
100
AcDb2dVertex
 10
94.01703482798207
 20
647.6936329616376
 30
0.0
  0
SEQEND
  5
1E5
330
1E2
100
AcDbEntity
  8
Layer 1
 62
    40
370
    13
  0
POLYLINE
  5
1E6
330
1D2
100
AcDbEntity
  8
Layer 1
 62
    40
370
    13
100
AcDb2dPolyline
 66
     1
 10
0.0
 20
0.0
 30
0.0
  0
VERTEX
  5
1E7
330
1E6
100
AcDbEntity
  8
Layer 1
 62
    40
370
    13
100
AcDbVertex
100
AcDb2dVertex
 10
19.01717692301242
 20
652.6935861667679
 30
0.0
  0
VERTEX
  5
1E8
330
1E6
100
AcDbEntity
  8
Layer 1
 62
    40
370
    13
100
AcDbVertex
100
AcDb2dVertex
 10
19.01717692301242
 20
647.6936329616376
 30
0.0
  0
SEQEND
  5
1E9
330
1E6
100
AcDbEntity
  8
Layer 1
 62
    40
370
    13
  0
POLYLINE
  5
1EA
330
1D2
100
AcDbEntity
  8
Layer 1
 62
    40
370
    13
100
AcDb2dPolyline
 66
     1
 10
0.0
 20
0.0
 30
0.0
  0
VERTEX
  5
1EB
330
1EA
100
AcDbEntity
  8
Layer 1
 62
    40
370
    13
100
AcDbVertex
100
AcDb2dVertex
 10
94.01703482798207
 20
647.6936329616376
 30
0.0
  0
VERTEX
  5
1EC
330
1EA
100
AcDbEntity
  8
Layer 1
 62
    40
370
    13
100
AcDbVertex
100
AcDb2dVertex
 10
19.01717692301242
 20
647.6936329616376
 30
0.0
  0
SEQEND
  5
1ED
330
1EA
100
AcDbEntity
  8
Layer 1
 62
    40
370
    13
  0
POLYLINE
  5
1EE
330
1D2
100
AcDbEntity
  8
Layer 1
 62
    40
370
    13
100
AcDb2dPolyline
 66
     1
 10
0.0
 20
0.0
 30
0.0
  0
VERTEX
  5
1EF
330
1EE
100
AcDbEntity
  8
Layer 1
 62
    40
370
    13
100
AcDbVertex
100
AcDb2dVertex
 10
94.01703482798207
 20
652.6935861667679
 30
0.0
  0
VERTEX
  5
1F0
330
1EE
100
AcDbEntity
  8
Layer 1
 62
    40
370
    13
100
AcDbVertex
100
AcDb2dVertex
 10
19.01717692301242
 20
652.6935861667679
 30
0.0
  0
SEQEND
  5
1F1
330
1EE
100
AcDbEntity
  8
Layer 1
 62
    40
370
    13
  0
ENDBLK
  5
1D5
330
1D2
100
AcDbEntity
  8
0
100
AcDbBlockEnd
  0
BLOCK
  5
1F4
330
1F2
100
AcDbEntity
  8
0
100
AcDbBlockBegin
  2
block 8
 70
     0
 10
0.0
 20
0.0
 30
0.0
  3
block 8
  1

  0
POLYLINE
  5
1F6
330
1F2
100
AcDbEntity
  8
Layer 1
 62
    40
370
    13
100
AcDb2dPolyline
 66
     1
 10
0.0
 20
0.0
 30
0.0
  0
VERTEX
  5
1F7
330
1F6
100
AcDbEntity
  8
Layer 1
 62
    40
370
    13
100
AcDbVertex
100
AcDb2dVertex
 10
399.9784195035534
 20
364.6782421700325
 30
0.0
  0
VERTEX
  5
1F8
330
1F6
100
AcDbEntity
  8
Layer 1
 62
    40
370
    13
100
AcDbVertex
100
AcDb2dVertex
 10
399.9784195035534
 20
564.6782005822179
 30
0.0
  0
SEQEND
  5
1F9
330
1F6
100
AcDbEntity
  8
Layer 1
 62
    40
370
    13
  0
POLYLINE
  5
1FA
330
1F2
100
AcDbEntity
  8
Layer 1
 62
    40
370
    13
100
AcDb2dPolyline
 66
     1
 10
0.0
 20
0.0
 30
0.0
  0
VERTEX
  5
1FB
330
1FA
100
AcDbEntity
  8
Layer 1
 62
    40
370
    13
100
AcDbVertex
100
AcDb2dVertex
 10
394.9784662984231
 20
364.6782421700325
 30
0.0
  0
VERTEX
  5
1FC
330
1FA
100
AcDbEntity
  8
Layer 1
 62
    40
370
    13
100
AcDbVertex
100
AcDb2dVertex
 10
394.9784662984231
 20
564.6782005822179
 30
0.0
  0
SEQEND
  5
1FD
330
1FA
100
AcDbEntity
  8
Layer 1
 62
    40
370
    13
  0
POLYLINE
  5
1FE
330
1F2
100
AcDbEntity
  8
Layer 1
 62
    40
370
    13
100
AcDb2dPolyline
 66
     1
 10
0.0
 20
0.0
 30
0.0
  0
VERTEX
  5
1FF
330
1FE
100
AcDbEntity
  8
Layer 1
 62
    40
370
    13
100
AcDbVertex
100
AcDb2dVertex
 10
399.9784195035534
 20
564.6782005822179
 30
0.0
  0
VERTEX
  5
200
330
1FE
100
AcDbEntity
  8
Layer 1
 62
    40
370
    13
100
AcDbVertex
100
AcDb2dVertex
 10
394.9784662984231
 20
564.6782005822179
 30
0.0
  0
SEQEND
  5
201
330
1FE
100
AcDbEntity
  8
Layer 1
 62
    40
370
    13
  0
POLYLINE
  5
202
330
1F2
100
AcDbEntity
  8
Layer 1
 62
    40
370
    13
100
AcDb2dPolyline
 66
     1
 10
0.0
 20
0.0
 30
0.0
  0
VERTEX
  5
203
330
202
100
AcDbEntity
  8
Layer 1
 62
    40
370
    13
100
AcDbVertex
100
AcDb2dVertex
 10
399.9784195035534
 20
289.6783842650629
 30
0.0
  0
VERTEX
  5
204
330
202
100
AcDbEntity
  8
Layer 1
 62
    40
370
    13
100
AcDbVertex
100
AcDb2dVertex
 10
399.9784195035534
 20
364.6782421700325
 30
0.0
  0
SEQEND
  5
205
330
202
100
AcDbEntity
  8
Layer 1
 62
    40
370
    13
  0
POLYLINE
  5
206
330
1F2
100
AcDbEntity
  8
Layer 1
 62
    40
370
    13
100
AcDb2dPolyline
 66
     1
 10
0.0
 20
0.0
 30
0.0
  0
VERTEX
  5
207
330
206
100
AcDbEntity
  8
Layer 1
 62
    40
370
    13
100
AcDbVertex
100
AcDb2dVertex
 10
394.9784662984231
 20
289.6783842650629
 30
0.0
  0
VERTEX
  5
208
330
206
100
AcDbEntity
  8
Layer 1
 62
    40
370
    13
100
AcDbVertex
100
AcDb2dVertex
 10
394.9784662984231
 20
364.6782421700325
 30
0.0
  0
SEQEND
  5
209
330
206
100
AcDbEntity
  8
Layer 1
 62
    40
370
    13
  0
POLYLINE
  5
20A
330
1F2
100
AcDbEntity
  8
Layer 1
 62
    40
370
    13
100
AcDb2dPolyline
 66
     1
 10
0.0
 20
0.0
 30
0.0
  0
VERTEX
  5
20B
330
20A
100
AcDbEntity
  8
Layer 1
 62
    40
370
    13
100
AcDbVertex
100
AcDb2dVertex
 10
399.9784195035534
 20
289.6783842650629
 30
0.0
  0
VERTEX
  5
20C
330
20A
100
AcDbEntity
  8
Layer 1
 62
    40
370
    13
100
AcDbVertex
100
AcDb2dVertex
 10
394.9784662984231
 20
289.6783842650629
 30
0.0
  0
SEQEND
  5
20D
330
20A
100
AcDbEntity
  8
Layer 1
 62
    40
370
    13
  0
POLYLINE
  5
20E
330
1F2
100
AcDbEntity
  8
Layer 1
 62
    40
370
    13
100
AcDb2dPolyline
 66
     1
 10
0.0
 20
0.0
 30
0.0
  0
VERTEX
  5
20F
330
20E
100
AcDbEntity
  8
Layer 1
 62
    40
370
    13
100
AcDbVertex
100
AcDb2dVertex
 10
399.9784195035534
 20
364.6782421700325
 30
0.0
  0
VERTEX
  5
210
330
20E
100
AcDbEntity
  8
Layer 1
 62
    40
370
    13
100
AcDbVertex
100
AcDb2dVertex
 10
394.9784662984231
 20
364.6782421700325
 30
0.0
  0
SEQEND
  5
211
330
20E
100
AcDbEntity
  8
Layer 1
 62
    40
370
    13
  0
ENDBLK
  5
1F5
330
1F2
100
AcDbEntity
  8
0
100
AcDbBlockEnd
  0
BLOCK
  5
214
330
212
100
AcDbEntity
  8
0
100
AcDbBlockBegin
  2
block 9
 70
     0
 10
0.0
 20
0.0
 30
0.0
  3
block 9
  1

  0
POLYLINE
  5
216
330
212
100
AcDbEntity
  8
Layer 1
 62
    40
370
    13
100
AcDb2dPolyline
 66
     1
 10
0.0
 20
0.0
 30
0.0
  0
VERTEX
  5
217
330
216
100
AcDbEntity
  8
Layer 1
 62
    40
370
    13
100
AcDbVertex
100
AcDb2dVertex
 10
528.5684602293269
 20
383.8213028070654
 30
0.0
  0
VERTEX
  5
218
330
216
100
AcDbEntity
  8
Layer 1
 62
    40
370
    13
100
AcDbVertex
100
AcDb2dVertex
 10
528.5314254528604
 20
383.6671347841004
 30
0.0
  0
VERTEX
  5
219
330
216
100
AcDbEntity
  8
Layer 1
 62
    40
370
    13
100
AcDbVertex
100
AcDb2dVertex
 10
528.4072297606172
 20
382.4666266667248
 30
0.0
  0
VERTEX
  5
21A
330
216
100
AcDbEntity
  8
Layer 1
 62
    40
370
    13
100
AcDbVertex
100
AcDb2dVertex
 10
528.5314254528604
 20
381.1232547459451
 30
0.0
  0
VERTEX
  5
21B
330
216
100
AcDbEntity
  8
Layer 1
 62
    40
370
    13
100
AcDbVertex
100
AcDb2dVertex
 10
528.8972515297004
 20
379.7036816194012
 30
0.0
  0
VERTEX
  5
21C
330
216
100
AcDbEntity
  8
Layer 1
 62
    40
370
    13
100
AcDbVertex
100
AcDb2dVertex
 10
529.4870949404688
 20
378.2795006776457
 30
0.0
  0
VERTEX
  5
21D
330
216
100
AcDbEntity
  8
Layer 1
 62
    40
370
    13
100
AcDbVertex
100
AcDb2dVertex
 10
530.2709833544438
 20
376.9220253972233
 30
0.0
  0
VERTEX
  5
21E
330
216
100
AcDbEntity
  8
Layer 1
 62
    40
370
    13
100
AcDbVertex
100
AcDb2dVertex
 10
531.2093843009322
 20
375.6992964139678
 30
0.0
  0
VERTEX
  5
21F
330
216
100
AcDbEntity
  8
Layer 1
 62
    40
370
    13
100
AcDbVertex
100
AcDb2dVertex
 10
532.2557028634963
 20
374.6727010230569
 30
0.0
  0
VERTEX
  5
220
330
216
100
AcDbEntity
  8
Layer 1
 62
    40
370
    13
100
AcDbVertex
100
AcDb2dVertex
 10
533.357056826437
 20
373.8934204242934
 30
0.0
  0
SEQEND
  5
221
330
216
100
AcDbEntity
  8
Layer 1
 62
    40
370
    13
  0
POLYLINE
  5
222
330
212
100
AcDbEntity
  8
Layer 1
 62
    40
370
    13
100
AcDb2dPolyline
 66
     1
 10
0.0
 20
0.0
 30
0.0
  0
VERTEX
  5
223
330
222
100
AcDbEntity
  8
Layer 1
 62
    40
370
    13
100
AcDbVertex
100
AcDb2dVertex
 10
533.357056826437
 20
373.8934204242934
 30
0.0
  0
VERTEX
  5
224
330
222
100
AcDbEntity
  8
Layer 1
 62
    40
370
    13
100
AcDbVertex
100
AcDb2dVertex
 10
534.4584538530714
 20
373.400944024677
 30
0.0
  0
VERTEX
  5
225
330
222
100
AcDbEntity
  8
Layer 1
 62
    40
370
    13
100
AcDbVertex
100
AcDb2dVertex
 10
534.609779672261
 20
373.3565022929172
 30
0.0
  0
SEQEND
  5
226
330
222
100
AcDbEntity
  8
Layer 1
 62
    40
370
    13
  0
POLYLINE
  5
227
330
212
100
AcDbEntity
  8
Layer 1
 62
    40
370
    13
100
AcDb2dPolyline
 66
     1
 10
0.0
 20
0.0
 30
0.0
  0
VERTEX
  5
228
330
227
100
AcDbEntity
  8
Layer 1
 62
    40
370
    13
100
AcDbVertex
100
AcDb2dVertex
 10
528.5684602293269
 20
500.1783477608863
 30
0.0
  0
VERTEX
  5
229
330
227
100
AcDbEntity
  8
Layer 1
 62
    40
370
    13
100
AcDbVertex
100
AcDb2dVertex
 10
528.5314254528604
 20
500.0238352283728
 30
0.0
  0
VERTEX
  5
22A
330
227
100
AcDbEntity
  8
Layer 1
 62
    40
370
    13
100
AcDbVertex
100
AcDb2dVertex
 10
528.4072297606172
 20
498.8236500886989
 30
0.0
  0
VERTEX
  5
22B
330
227
100
AcDbEntity
  8
Layer 1
 62
    40
370
    13
100
AcDbVertex
100
AcDb2dVertex
 10
528.5314254528604
 20
497.4802781679193
 30
0.0
  0
VERTEX
  5
22C
330
227
100
AcDbEntity
  8
Layer 1
 62
    40
370
    13
100
AcDbVertex
100
AcDb2dVertex
 10
528.8972515297004
 20
496.0607265732221
 30
0.0
  0
VERTEX
  5
22D
330
227
100
AcDbEntity
  8
Layer 1
 62
    40
370
    13
100
AcDbVertex
100
AcDb2dVertex
 10
529.4870949404688
 20
494.6365671633134
 30
0.0
  0
VERTEX
  5
22E
330
227
100
AcDbEntity
  8
Layer 1
 62
    40
370
    13
100
AcDbVertex
100
AcDb2dVertex
 10
530.2709833544438
 20
493.2790703510443
 30
0.0
  0
VERTEX
  5
22F
330
227
100
AcDbEntity
  8
Layer 1
 62
    40
370
    13
100
AcDbVertex
100
AcDb2dVertex
 10
531.2093843009322
 20
492.0563198359419
 30
0.0
  0
VERTEX
  5
230
330
227
100
AcDbEntity
  8
Layer 1
 62
    40
370
    13
100
AcDbVertex
100
AcDb2dVertex
 10
532.2557028634963
 20
491.0297675087246
 30
0.0
  0
VERTEX
  5
231
330
227
100
AcDbEntity
  8
Layer 1
 62
    40
370
    13
100
AcDbVertex
100
AcDb2dVertex
 10
533.357056826437
 20
490.2504438462675
 30
0.0
  0
SEQEND
  5
232
330
227
100
AcDbEntity
  8
Layer 1
 62
    40
370
    13
  0
POLYLINE
  5
233
330
212
100
AcDbEntity
  8
Layer 1
 62
    40
370
    13
100
AcDb2dPolyline
 66
     1
 10
0.0
 20
0.0
 30
0.0
  0
VERTEX
  5
234
330
233
100
AcDbEntity
  8
Layer 1
 62
    40
370
    13
100
AcDbVertex
100
AcDb2dVertex
 10
533.357056826437
 20
490.2504438462675
 30
0.0
  0
VERTEX
  5
235
330
233
100
AcDbEntity
  8
Layer 1
 62
    40
370
    13
100
AcDbVertex
100
AcDb2dVertex
 10
534.4584538530714
 20
489.757967446651
 30
0.0
  0
VERTEX
  5
236
330
233
100
AcDbEntity
  8
Layer 1
 62
    40
370
    13
100
AcDbVertex
100
AcDb2dVertex
 10
534.609779672261
 20
489.7135257148913
 30
0.0
  0
SEQEND
  5
237
330
233
100
AcDbEntity
  8
Layer 1
 62
    40
370
    13
  0
POLYLINE
  5
238
330
212
100
AcDbEntity
  8
Layer 1
 62
    40
370
    13
100
AcDb2dPolyline
 66
     1
 10
0.0
 20
0.0
 30
0.0
  0
VERTEX
  5
239
330
238
100
AcDbEntity
  8
Layer 1
 62
    40
370
    13
100
AcDbVertex
100
AcDb2dVertex
 10
629.3313450647047
 20
325.6521143857352
 30
0.0
  0
VERTEX
  5
23A
330
238
100
AcDbEntity
  8
Layer 1
 62
    40
370
    13
100
AcDbVertex
100
AcDb2dVertex
 10
629.2938796513026
 20
325.4979463627703
 30
0.0
  0
VERTEX
  5
23B
330
238
100
AcDbEntity
  8
Layer 1
 62
    40
370
    13
100
AcDbVertex
100
AcDb2dVertex
 10
629.1697700864465
 20
324.29780428679
 30
0.0
  0
VERTEX
  5
23C
330
238
100
AcDbEntity
  8
Layer 1
 62
    40
370
    13
100
AcDbVertex
100
AcDb2dVertex
 10
629.2938796513026
 20
322.954066324615
 30
0.0
  0
VERTEX
  5
23D
330
238
100
AcDbEntity
  8
Layer 1
 62
    40
370
    13
100
AcDbVertex
100
AcDb2dVertex
 10
629.6600933013847
 20
321.5344931980711
 30
0.0
  0
VERTEX
  5
23E
330
238
100
AcDbEntity
  8
Layer 1
 62
    40
370
    13
100
AcDbVertex
100
AcDb2dVertex
 10
630.2498936484595
 20
320.1103337881623
 30
0.0
  0
VERTEX
  5
23F
330
238
100
AcDbEntity
  8
Layer 1
 62
    40
370
    13
100
AcDbVertex
100
AcDb2dVertex
 10
631.0334806165796
 20
318.7528369758932
 30
0.0
  0
VERTEX
  5
240
330
238
100
AcDbEntity
  8
Layer 1
 62
    40
370
    13
100
AcDbVertex
100
AcDb2dVertex
 10
631.972183008923
 20
317.5301079926377
 30
0.0
  0
VERTEX
  5
241
330
238
100
AcDbEntity
  8
Layer 1
 62
    40
370
    13
100
AcDbVertex
100
AcDb2dVertex
 10
633.018200125632
 20
316.5035341335736
 30
0.0
  0
VERTEX
  5
242
330
238
100
AcDbEntity
  8
Layer 1
 62
    40
370
    13
100
AcDbVertex
100
AcDb2dVertex
 10
634.1195971522664
 20
315.7242535348101
 30
0.0
  0
SEQEND
  5
243
330
238
100
AcDbEntity
  8
Layer 1
 62
    40
370
    13
  0
POLYLINE
  5
244
330
212
100
AcDbEntity
  8
Layer 1
 62
    40
370
    13
100
AcDb2dPolyline
 66
     1
 10
0.0
 20
0.0
 30
0.0
  0
VERTEX
  5
245
330
244
100
AcDbEntity
  8
Layer 1
 62
    40
370
    13
100
AcDbVertex
100
AcDb2dVertex
 10
634.1195971522664
 20
315.7242535348101
 30
0.0
  0
VERTEX
  5
246
330
244
100
AcDbEntity
  8
Layer 1
 62
    40
370
    13
100
AcDbVertex
100
AcDb2dVertex
 10
635.2212525610621
 20
315.2317556033469
 30
0.0
  0
VERTEX
  5
247
330
244
100
AcDbEntity
  8
Layer 1
 62
    40
370
    13
100
AcDbVertex
100
AcDb2dVertex
 10
635.3726645076389
 20
315.1873138715871
 30
0.0
  0
SEQEND
  5
248
330
244
100
AcDbEntity
  8
Layer 1
 62
    40
370
    13
  0
POLYLINE
  5
249
330
212
100
AcDbEntity
  8
Layer 1
 62
    40
370
    13
100
AcDb2dPolyline
 66
     1
 10
0.0
 20
0.0
 30
0.0
  0
VERTEX
  5
24A
330
249
100
AcDbEntity
  8
Layer 1
 62
    40
370
    13
100
AcDbVertex
100
AcDb2dVertex
 10
528.5684602293269
 20
558.9691175351426
 30
0.0
  0
VERTEX
  5
24B
330
249
100
AcDbEntity
  8
Layer 1
 62
    40
370
    13
100
AcDbVertex
100
AcDb2dVertex
 10
528.5314254528604
 20
558.8149495121776
 30
0.0
  0
VERTEX
  5
24C
330
249
100
AcDbEntity
  8
Layer 1
 62
    40
370
    13
100
AcDbVertex
100
AcDb2dVertex
 10
528.4072297606172
 20
557.6148074361972
 30
0.0
  0
VERTEX
  5
24D
330
249
100
AcDbEntity
  8
Layer 1
 62
    40
370
    13
100
AcDbVertex
100
AcDb2dVertex
 10
528.5314254528604
 20
556.2710479421755
 30
0.0
  0
VERTEX
  5
24E
330
249
100
AcDbEntity
  8
Layer 1
 62
    40
370
    13
100
AcDbVertex
100
AcDb2dVertex
 10
528.8972515297004
 20
554.8518408570269
 30
0.0
  0
VERTEX
  5
24F
330
249
100
AcDbEntity
  8
Layer 1
 62
    40
370
    13
100
AcDbVertex
100
AcDb2dVertex
 10
529.4870949404688
 20
553.4276814471182
 30
0.0
  0
VERTEX
  5
250
330
249
100
AcDbEntity
  8
Layer 1
 62
    40
370
    13
100
AcDbVertex
100
AcDb2dVertex
 10
530.2709833544438
 20
552.070184634849
 30
0.0
  0
VERTEX
  5
251
330
249
100
AcDbEntity
  8
Layer 1
 62
    40
370
    13
100
AcDbVertex
100
AcDb2dVertex
 10
531.2093843009322
 20
550.8474771834403
 30
0.0
  0
VERTEX
  5
252
330
249
100
AcDbEntity
  8
Layer 1
 62
    40
370
    13
100
AcDbVertex
100
AcDb2dVertex
 10
532.2557028634963
 20
549.8205372829809
 30
0.0
  0
VERTEX
  5
253
330
249
100
AcDbEntity
  8
Layer 1
 62
    40
370
    13
100
AcDbVertex
100
AcDb2dVertex
 10
533.357056826437
 20
549.0416011937659
 30
0.0
  0
SEQEND
  5
254
330
249
100
AcDbEntity
  8
Layer 1
 62
    40
370
    13
  0
POLYLINE
  5
255
330
212
100
AcDbEntity
  8
Layer 1
 62
    40
370
    13
100
AcDb2dPolyline
 66
     1
 10
0.0
 20
0.0
 30
0.0
  0
VERTEX
  5
256
330
255
100
AcDbEntity
  8
Layer 1
 62
    40
370
    13
100
AcDbVertex
100
AcDb2dVertex
 10
533.357056826437
 20
549.0416011937659
 30
0.0
  0
VERTEX
  5
257
330
255
100
AcDbEntity
  8
Layer 1
 62
    40
370
    13
100
AcDbVertex
100
AcDb2dVertex
 10
534.4584538530714
 20
548.5491247941494
 30
0.0
  0
VERTEX
  5
258
330
255
100
AcDbEntity
  8
Layer 1
 62
    40
370
    13
100
AcDbVertex
100
AcDb2dVertex
 10
534.609779672261
 20
548.5042954891477
 30
0.0
  0
SEQEND
  5
259
330
255
100
AcDbEntity
  8
Layer 1
 62
    40
370
    13
  0
POLYLINE
  5
25A
330
212
100
AcDbEntity
  8
Layer 1
 62
    40
370
    13
100
AcDb2dPolyline
 66
     1
 10
0.0
 20
0.0
 30
0.0
  0
VERTEX
  5
25B
330
25A
100
AcDbEntity
  8
Layer 1
 62
    40
370
    13
100
AcDbVertex
100
AcDb2dVertex
 10
680.2431384005012
 20
296.2614880367461
 30
0.0
  0
VERTEX
  5
25C
330
25A
100
AcDbEntity
  8
Layer 1
 62
    40
370
    13
100
AcDbVertex
100
AcDb2dVertex
 10
680.2057591144861
 20
296.1073200137812
 30
0.0
  0
VERTEX
  5
25D
330
25A
100
AcDbEntity
  8
Layer 1
 62
    40
370
    13
100
AcDbVertex
100
AcDb2dVertex
 10
680.0815634222429
 20
294.9068334282523
 30
0.0
  0
VERTEX
  5
25E
330
25A
100
AcDbEntity
  8
Layer 1
 62
    40
370
    13
100
AcDbVertex
100
AcDb2dVertex
 10
680.2057591144861
 20
293.5634399756259
 30
0.0
  0
VERTEX
  5
25F
330
25A
100
AcDbEntity
  8
Layer 1
 62
    40
370
    13
100
AcDbVertex
100
AcDb2dVertex
 10
680.571886637181
 20
292.1438668490819
 30
0.0
  0
VERTEX
  5
260
330
25A
100
AcDbEntity
  8
Layer 1
 62
    40
370
    13
100
AcDbVertex
100
AcDb2dVertex
 10
681.1614286020945
 20
290.7197074391732
 30
0.0
  0
VERTEX
  5
261
330
25A
100
AcDbEntity
  8
Layer 1
 62
    40
370
    13
100
AcDbVertex
100
AcDb2dVertex
 10
681.9452739523759
 20
289.3622106269041
 30
0.0
  0
VERTEX
  5
262
330
25A
100
AcDbEntity
  8
Layer 1
 62
    40
370
    13
100
AcDbVertex
100
AcDb2dVertex
 10
682.8836318351708
 20
288.1394816436485
 30
0.0
  0
VERTEX
  5
263
330
25A
100
AcDbEntity
  8
Layer 1
 62
    40
370
    13
100
AcDbVertex
100
AcDb2dVertex
 10
683.9299934614284
 20
287.1129077845845
 30
0.0
  0
VERTEX
  5
264
330
25A
100
AcDbEntity
  8
Layer 1
 62
    40
370
    13
100
AcDbVertex
100
AcDb2dVertex
 10
685.0313904880627
 20
286.3336271858209
 30
0.0
  0
SEQEND
  5
265
330
25A
100
AcDbEntity
  8
Layer 1
 62
    40
370
    13
  0
POLYLINE
  5
266
330
212
100
AcDbEntity
  8
Layer 1
 62
    40
370
    13
100
AcDb2dPolyline
 66
     1
 10
0.0
 20
0.0
 30
0.0
  0
VERTEX
  5
267
330
266
100
AcDbEntity
  8
Layer 1
 62
    40
370
    13
100
AcDbVertex
100
AcDb2dVertex
 10
685.0313904880627
 20
286.3336271858209
 30
0.0
  0
VERTEX
  5
268
330
266
100
AcDbEntity
  8
Layer 1
 62
    40
370
    13
100
AcDbVertex
100
AcDb2dVertex
 10
686.132787514697
 20
285.8411507862045
 30
0.0
  0
VERTEX
  5
269
330
266
100
AcDbEntity
  8
Layer 1
 62
    40
370
    13
100
AcDbVertex
100
AcDb2dVertex
 10
686.2841133338867
 20
285.7966875225979
 30
0.0
  0
SEQEND
  5
26A
330
266
100
AcDbEntity
  8
Layer 1
 62
    40
370
    13
  0
POLYLINE
  5
26B
330
212
100
AcDbEntity
  8
Layer 1
 62
    40
370
    13
100
AcDb2dPolyline
 66
     1
 10
0.0
 20
0.0
 30
0.0
  0
VERTEX
  5
26C
330
26B
100
AcDbEntity
  8
Layer 1
 62
    40
370
    13
100
AcDbVertex
100
AcDb2dVertex
 10
559.8736122668565
 20
558.2300584261693
 30
0.0
  0
VERTEX
  5
26D
330
26B
100
AcDbEntity
  8
Layer 1
 62
    40
370
    13
100
AcDbVertex
100
AcDb2dVertex
 10
506.8405444497111
 20
588.8455023475519
 30
0.0
  0
SEQEND
  5
26E
330
26B
100
AcDbEntity
  8
Layer 1
 62
    40
370
    13
  0
POLYLINE
  5
26F
330
212
100
AcDbEntity
  8
Layer 1
 62
    40
370
    13
100
AcDb2dPolyline
 66
     1
 10
0.0
 20
0.0
 30
0.0
  0
VERTEX
  5
270
330
26F
100
AcDbEntity
  8
Layer 1
 62
    40
370
    13
100
AcDbVertex
100
AcDb2dVertex
 10
506.8405444497111
 20
588.8455023475519
 30
0.0
  0
VERTEX
  5
271
330
26F
100
AcDbEntity
  8
Layer 1
 62
    40
370
    13
100
AcDbVertex
100
AcDb2dVertex
 10
503.3050152079735
 20
586.8043263362349
 30
0.0
  0
SEQEND
  5
272
330
26F
100
AcDbEntity
  8
Layer 1
 62
    40
370
    13
  0
POLYLINE
  5
273
330
212
100
AcDbEntity
  8
Layer 1
 62
    40
370
    13
100
AcDb2dPolyline
 66
     1
 10
0.0
 20
0.0
 30
0.0
  0
VERTEX
  5
274
330
273
100
AcDbEntity
  8
Layer 1
 62
    40
370
    13
100
AcDbVertex
100
AcDb2dVertex
 10
559.8736122668565
 20
394.9217880337824
 30
0.0
  0
VERTEX
  5
275
330
273
100
AcDbEntity
  8
Layer 1
 62
    40
370
    13
100
AcDbVertex
100
AcDb2dVertex
 10
559.8736122668565
 20
558.2300584261693
 30
0.0
  0
SEQEND
  5
276
330
273
100
AcDbEntity
  8
Layer 1
 62
    40
370
    13
  0
POLYLINE
  5
277
330
212
100
AcDbEntity
  8
Layer 1
 62
    40
370
    13
100
AcDb2dPolyline
 66
     1
 10
0.0
 20
0.0
 30
0.0
  0
VERTEX
  5
278
330
277
100
AcDbEntity
  8
Layer 1
 62
    40
370
    13
100
AcDbVertex
100
AcDb2dVertex
 10
559.8736122668565
 20
558.2300584261693
 30
0.0
  0
VERTEX
  5
279
330
277
100
AcDbEntity
  8
Layer 1
 62
    40
370
    13
100
AcDbVertex
100
AcDb2dVertex
 10
556.3380830251189
 20
556.1892269244009
 30
0.0
  0
SEQEND
  5
27A
330
277
100
AcDbEntity
  8
Layer 1
 62
    40
370
    13
  0
POLYLINE
  5
27B
330
212
100
AcDbEntity
  8
Layer 1
 62
    40
370
    13
100
AcDb2dPolyline
 66
     1
 10
0.0
 20
0.0
 30
0.0
  0
VERTEX
  5
27C
330
27B
100
AcDbEntity
  8
Layer 1
 62
    40
370
    13
100
AcDbVertex
100
AcDb2dVertex
 10
701.2948250000559
 20
313.2812501988323
 30
0.0
  0
VERTEX
  5
27D
330
27B
100
AcDbEntity
  8
Layer 1
 62
    40
370
    13
100
AcDbVertex
100
AcDb2dVertex
 10
559.8736122668565
 20
394.9217880337824
 30
0.0
  0
SEQEND
  5
27E
330
27B
100
AcDbEntity
  8
Layer 1
 62
    40
370
    13
  0
POLYLINE
  5
27F
330
212
100
AcDbEntity
  8
Layer 1
 62
    40
370
    13
100
AcDb2dPolyline
 66
     1
 10
0.0
 20
0.0
 30
0.0
  0
VERTEX
  5
280
330
27F
100
AcDbEntity
  8
Layer 1
 62
    40
370
    13
100
AcDbVertex
100
AcDb2dVertex
 10
559.8736122668565
 20
394.9217880337824
 30
0.0
  0
VERTEX
  5
281
330
27F
100
AcDbEntity
  8
Layer 1
 62
    40
370
    13
100
AcDbVertex
100
AcDb2dVertex
 10
556.3380830251189
 20
392.8809780638608
 30
0.0
  0
SEQEND
  5
282
330
27F
100
AcDbEntity
  8
Layer 1
 62
    40
370
    13
  0
POLYLINE
  5
283
330
212
100
AcDbEntity
  8
Layer 1
 62
    40
370
    13
100
AcDb2dPolyline
 66
     1
 10
0.0
 20
0.0
 30
0.0
  0
VERTEX
  5
284
330
283
100
AcDbEntity
  8
Layer 1
 62
    40
370
    13
100
AcDbVertex
100
AcDb2dVertex
 10
701.2948250000559
 20
252.040457706547
 30
0.0
  0
VERTEX
  5
285
330
283
100
AcDbEntity
  8
Layer 1
 62
    40
370
    13
100
AcDbVertex
100
AcDb2dVertex
 10
701.2948250000559
 20
313.2812501988323
 30
0.0
  0
SEQEND
  5
286
330
283
100
AcDbEntity
  8
Layer 1
 62
    40
370
    13
  0
POLYLINE
  5
287
330
212
100
AcDbEntity
  8
Layer 1
 62
    40
370
    13
100
AcDb2dPolyline
 66
     1
 10
0.0
 20
0.0
 30
0.0
  0
VERTEX
  5
288
330
287
100
AcDbEntity
  8
Layer 1
 62
    40
370
    13
100
AcDbVertex
100
AcDb2dVertex
 10
701.2948250000559
 20
252.040457706547
 30
0.0
  0
VERTEX
  5
289
330
287
100
AcDbEntity
  8
Layer 1
 62
    40
370
    13
100
AcDbVertex
100
AcDb2dVertex
 10
697.7592957583182
 20
249.999636970702
 30
0.0
  0
SEQEND
  5
28A
330
287
100
AcDbEntity
  8
Layer 1
 62
    40
370
    13
  0
POLYLINE
  5
28B
330
212
100
AcDbEntity
  8
Layer 1
 62
    40
370
    13
100
AcDb2dPolyline
 66
     1
 10
0.0
 20
0.0
 30
0.0
  0
VERTEX
  5
28C
330
28B
100
AcDbEntity
  8
Layer 1
 62
    40
370
    13
100
AcDbVertex
100
AcDb2dVertex
 10
701.2948250000559
 20
313.2812501988323
 30
0.0
  0
VERTEX
  5
28D
330
28B
100
AcDbEntity
  8
Layer 1
 62
    40
370
    13
100
AcDbVertex
100
AcDb2dVertex
 10
697.7592957583182
 20
311.2400957193621
 30
0.0
  0
SEQEND
  5
28E
330
28B
100
AcDbEntity
  8
Layer 1
 62
    40
370
    13
  0
POLYLINE
  5
28F
330
212
100
AcDbEntity
  8
Layer 1
 62
    40
370
    13
100
AcDb2dPolyline
 66
     1
 10
0.0
 20
0.0
 30
0.0
  0
VERTEX
  5
290
330
28F
100
AcDbEntity
  8
Layer 1
 62
    40
370
    13
100
AcDbVertex
100
AcDb2dVertex
 10
529.8215275846994
 20
547.0004251824489
 30
0.0
  0
VERTEX
  5
291
330
28F
100
AcDbEntity
  8
Layer 1
 62
    40
370
    13
100
AcDbVertex
100
AcDb2dVertex
 10
530.9229246113338
 20
546.5079487828325
 30
0.0
  0
VERTEX
  5
292
330
28F
100
AcDbEntity
  8
Layer 1
 62
    40
370
    13
100
AcDbVertex
100
AcDb2dVertex
 10
531.9692431738977
 20
546.3266075692277
 30
0.0
  0
VERTEX
  5
293
330
28F
100
AcDbEntity
  8
Layer 1
 62
    40
370
    13
100
AcDbVertex
100
AcDb2dVertex
 10
532.9076441203862
 20
546.465961681606
 30
0.0
  0
VERTEX
  5
294
330
28F
100
AcDbEntity
  8
Layer 1
 62
    40
370
    13
100
AcDbVertex
100
AcDb2dVertex
 10
533.6911449611191
 20
546.9185611009807
 30
0.0
  0
VERTEX
  5
295
330
28F
100
AcDbEntity
  8
Layer 1
 62
    40
370
    13
100
AcDbVertex
100
AcDb2dVertex
 10
534.2809883718875
 20
547.661883515617
 30
0.0
  0
VERTEX
  5
296
330
28F
100
AcDbEntity
  8
Layer 1
 62
    40
370
    13
100
AcDbVertex
100
AcDb2dVertex
 10
534.6472020219695
 20
548.6584635121126
 30
0.0
  0
VERTEX
  5
297
330
28F
100
AcDbEntity
  8
Layer 1
 62
    40
370
    13
100
AcDbVertex
100
AcDb2dVertex
 10
534.7713546505192
 20
549.858993161335
 30
0.0
  0
VERTEX
  5
298
330
28F
100
AcDbEntity
  8
Layer 1
 62
    40
370
    13
100
AcDbVertex
100
AcDb2dVertex
 10
534.6472020219695
 20
551.2023650821146
 30
0.0
  0
VERTEX
  5
299
330
28F
100
AcDbEntity
  8
Layer 1
 62
    40
370
    13
100
AcDbVertex
100
AcDb2dVertex
 10
534.2809883718875
 20
552.6219166768118
 30
0.0
  0
VERTEX
  5
29A
330
28F
100
AcDbEntity
  8
Layer 1
 62
    40
370
    13
100
AcDbVertex
100
AcDb2dVertex
 10
533.6911449611191
 20
554.0460760867205
 30
0.0
  0
VERTEX
  5
29B
330
28F
100
AcDbEntity
  8
Layer 1
 62
    40
370
    13
100
AcDbVertex
100
AcDb2dVertex
 10
532.9076441203862
 20
555.4035728989896
 30
0.0
  0
VERTEX
  5
29C
330
28F
100
AcDbEntity
  8
Layer 1
 62
    40
370
    13
100
AcDbVertex
100
AcDb2dVertex
 10
531.9692431738977
 20
556.626323414092
 30
0.0
  0
VERTEX
  5
29D
330
28F
100
AcDbEntity
  8
Layer 1
 62
    40
370
    13
100
AcDbVertex
100
AcDb2dVertex
 10
530.9229246113338
 20
557.6528757413092
 30
0.0
  0
VERTEX
  5
29E
330
28F
100
AcDbEntity
  8
Layer 1
 62
    40
370
    13
100
AcDbVertex
100
AcDb2dVertex
 10
529.8215275846994
 20
558.4321994037664
 30
0.0
  0
VERTEX
  5
29F
330
28F
100
AcDbEntity
  8
Layer 1
 62
    40
370
    13
100
AcDbVertex
100
AcDb2dVertex
 10
528.7201736217586
 20
558.9246758033828
 30
0.0
  0
VERTEX
  5
2A0
330
28F
100
AcDbEntity
  8
Layer 1
 62
    40
370
    13
100
AcDbVertex
100
AcDb2dVertex
 10
527.6738119955011
 20
559.1056294437456
 30
0.0
  0
VERTEX
  5
2A1
330
28F
100
AcDbEntity
  8
Layer 1
 62
    40
370
    13
100
AcDbVertex
100
AcDb2dVertex
 10
526.7354541127062
 20
558.9666198409158
 30
0.0
  0
VERTEX
  5
2A2
330
28F
100
AcDbEntity
  8
Layer 1
 62
    40
370
    13
100
AcDbVertex
100
AcDb2dVertex
 10
525.9515656987311
 20
558.5140204215411
 30
0.0
  0
VERTEX
  5
2A3
330
28F
100
AcDbEntity
  8
Layer 1
 62
    40
370
    13
100
AcDbVertex
100
AcDb2dVertex
 10
525.3617222879627
 20
557.7707410705984
 30
0.0
  0
VERTEX
  5
2A4
330
28F
100
AcDbEntity
  8
Layer 1
 62
    40
370
    13
100
AcDbVertex
100
AcDb2dVertex
 10
524.9958962111228
 20
556.7737735008607
 30
0.0
  0
VERTEX
  5
2A5
330
28F
100
AcDbEntity
  8
Layer 1
 62
    40
370
    13
100
AcDbVertex
100
AcDb2dVertex
 10
524.8717005188795
 20
555.5736314248803
 30
0.0
  0
VERTEX
  5
2A6
330
28F
100
AcDbEntity
  8
Layer 1
 62
    40
370
    13
100
AcDbVertex
100
AcDb2dVertex
 10
524.9958962111228
 20
554.2302595041007
 30
0.0
  0
VERTEX
  5
2A7
330
28F
100
AcDbEntity
  8
Layer 1
 62
    40
370
    13
100
AcDbVertex
100
AcDb2dVertex
 10
525.3617222879627
 20
552.81066484571
 30
0.0
  0
VERTEX
  5
2A8
330
28F
100
AcDbEntity
  8
Layer 1
 62
    40
370
    13
100
AcDbVertex
100
AcDb2dVertex
 10
525.9515656987311
 20
551.3865054358013
 30
0.0
  0
VERTEX
  5
2A9
330
28F
100
AcDbEntity
  8
Layer 1
 62
    40
370
    13
100
AcDbVertex
100
AcDb2dVertex
 10
526.7354541127062
 20
550.029008623532
 30
0.0
  0
VERTEX
  5
2AA
330
28F
100
AcDbEntity
  8
Layer 1
 62
    40
370
    13
100
AcDbVertex
100
AcDb2dVertex
 10
527.6738119955011
 20
548.8063011721233
 30
0.0
  0
VERTEX
  5
2AB
330
28F
100
AcDbEntity
  8
Layer 1
 62
    40
370
    13
100
AcDbVertex
100
AcDb2dVertex
 10
528.7201736217586
 20
547.7797057812124
 30
0.0
  0
VERTEX
  5
2AC
330
28F
100
AcDbEntity
  8
Layer 1
 62
    40
370
    13
100
AcDbVertex
100
AcDb2dVertex
 10
529.8215275846994
 20
547.0004251824489
 30
0.0
  0
SEQEND
  5
2AD
330
28F
100
AcDbEntity
  8
Layer 1
 62
    40
370
    13
  0
POLYLINE
  5
2AE
330
212
100
AcDbEntity
  8
Layer 1
 62
    40
370
    13
100
AcDb2dPolyline
 66
     1
 10
0.0
 20
0.0
 30
0.0
  0
VERTEX
  5
2AF
330
2AE
100
AcDbEntity
  8
Layer 1
 62
    40
370
    13
100
AcDbVertex
100
AcDb2dVertex
 10
529.8215275846994
 20
488.2096554081926
 30
0.0
  0
VERTEX
  5
2B0
330
2AE
100
AcDbEntity
  8
Layer 1
 62
    40
370
    13
100
AcDbVertex
100
AcDb2dVertex
 10
530.9229246113338
 20
487.7171790085762
 30
0.0
  0
VERTEX
  5
2B1
330
2AE
100
AcDbEntity
  8
Layer 1
 62
    40
370
    13
100
AcDbVertex
100
AcDb2dVertex
 10
531.9692431738977
 20
487.5358377949714
 30
0.0
  0
VERTEX
  5
2B2
330
2AE
100
AcDbEntity
  8
Layer 1
 62
    40
370
    13
100
AcDbVertex
100
AcDb2dVertex
 10
532.9076441203862
 20
487.6748473978012
 30
0.0
  0
VERTEX
  5
2B3
330
2AE
100
AcDbEntity
  8
Layer 1
 62
    40
370
    13
100
AcDbVertex
100
AcDb2dVertex
 10
533.6911449611191
 20
488.1274468171759
 30
0.0
  0
VERTEX
  5
2B4
330
2AE
100
AcDbEntity
  8
Layer 1
 62
    40
370
    13
100
AcDbVertex
100
AcDb2dVertex
 10
534.2809883718875
 20
488.8707261681186
 30
0.0
  0
VERTEX
  5
2B5
330
2AE
100
AcDbEntity
  8
Layer 1
 62
    40
370
    13
100
AcDbVertex
100
AcDb2dVertex
 10
534.6472020219695
 20
489.8676937378563
 30
0.0
  0
VERTEX
  5
2B6
330
2AE
100
AcDbEntity
  8
Layer 1
 62
    40
370
    13
100
AcDbVertex
100
AcDb2dVertex
 10
534.7713546505192
 20
491.0678358138366
 30
0.0
  0
VERTEX
  5
2B7
330
2AE
100
AcDbEntity
  8
Layer 1
 62
    40
370
    13
100
AcDbVertex
100
AcDb2dVertex
 10
534.6472020219695
 20
492.4115953078583
 30
0.0
  0
VERTEX
  5
2B8
330
2AE
100
AcDbEntity
  8
Layer 1
 62
    40
370
    13
100
AcDbVertex
100
AcDb2dVertex
 10
534.2809883718875
 20
493.830802393007
 30
0.0
  0
VERTEX
  5
2B9
330
2AE
100
AcDbEntity
  8
Layer 1
 62
    40
370
    13
100
AcDbVertex
100
AcDb2dVertex
 10
533.6911449611191
 20
495.2549618029157
 30
0.0
  0
VERTEX
  5
2BA
330
2AE
100
AcDbEntity
  8
Layer 1
 62
    40
370
    13
100
AcDbVertex
100
AcDb2dVertex
 10
532.9076441203862
 20
496.6124586151848
 30
0.0
  0
VERTEX
  5
2BB
330
2AE
100
AcDbEntity
  8
Layer 1
 62
    40
370
    13
100
AcDbVertex
100
AcDb2dVertex
 10
531.9692431738977
 20
497.8352091302871
 30
0.0
  0
VERTEX
  5
2BC
330
2AE
100
AcDbEntity
  8
Layer 1
 62
    40
370
    13
100
AcDbVertex
100
AcDb2dVertex
 10
530.9229246113338
 20
498.862105967053
 30
0.0
  0
VERTEX
  5
2BD
330
2AE
100
AcDbEntity
  8
Layer 1
 62
    40
370
    13
100
AcDbVertex
100
AcDb2dVertex
 10
529.8215275846994
 20
499.641042056268
 30
0.0
  0
VERTEX
  5
2BE
330
2AE
100
AcDbEntity
  8
Layer 1
 62
    40
370
    13
100
AcDbVertex
100
AcDb2dVertex
 10
528.7201736217586
 20
500.1335184558844
 30
0.0
  0
VERTEX
  5
2BF
330
2AE
100
AcDbEntity
  8
Layer 1
 62
    40
370
    13
100
AcDbVertex
100
AcDb2dVertex
 10
527.6738119955011
 20
500.3148596694893
 30
0.0
  0
VERTEX
  5
2C0
330
2AE
100
AcDbEntity
  8
Layer 1
 62
    40
370
    13
100
AcDbVertex
100
AcDb2dVertex
 10
526.7354541127062
 20
500.1755055571109
 30
0.0
  0
VERTEX
  5
2C1
330
2AE
100
AcDbEntity
  8
Layer 1
 62
    40
370
    13
100
AcDbVertex
100
AcDb2dVertex
 10
525.9515656987311
 20
499.7232506472848
 30
0.0
  0
VERTEX
  5
2C2
330
2AE
100
AcDbEntity
  8
Layer 1
 62
    40
370
    13
100
AcDbVertex
100
AcDb2dVertex
 10
525.3617222879627
 20
498.9795837231
 30
0.0
  0
VERTEX
  5
2C3
330
2AE
100
AcDbEntity
  8
Layer 1
 62
    40
370
    13
100
AcDbVertex
100
AcDb2dVertex
 10
524.9958962111228
 20
497.9830037266044
 30
0.0
  0
VERTEX
  5
2C4
330
2AE
100
AcDbEntity
  8
Layer 1
 62
    40
370
    13
100
AcDbVertex
100
AcDb2dVertex
 10
524.8717005188795
 20
496.782861650624
 30
0.0
  0
VERTEX
  5
2C5
330
2AE
100
AcDbEntity
  8
Layer 1
 62
    40
370
    13
100
AcDbVertex
100
AcDb2dVertex
 10
524.9958962111228
 20
495.4391021566023
 30
0.0
  0
VERTEX
  5
2C6
330
2AE
100
AcDbEntity
  8
Layer 1
 62
    40
370
    13
100
AcDbVertex
100
AcDb2dVertex
 10
525.3617222879627
 20
494.0198950714536
 30
0.0
  0
VERTEX
  5
2C7
330
2AE
100
AcDbEntity
  8
Layer 1
 62
    40
370
    13
100
AcDbVertex
100
AcDb2dVertex
 10
525.9515656987311
 20
492.5957356615449
 30
0.0
  0
VERTEX
  5
2C8
330
2AE
100
AcDbEntity
  8
Layer 1
 62
    40
370
    13
100
AcDbVertex
100
AcDb2dVertex
 10
526.7354541127062
 20
491.2382388492758
 30
0.0
  0
VERTEX
  5
2C9
330
2AE
100
AcDbEntity
  8
Layer 1
 62
    40
370
    13
100
AcDbVertex
100
AcDb2dVertex
 10
527.6738119955011
 20
490.0155313978671
 30
0.0
  0
VERTEX
  5
2CA
330
2AE
100
AcDbEntity
  8
Layer 1
 62
    40
370
    13
100
AcDbVertex
100
AcDb2dVertex
 10
528.7201736217586
 20
488.9885914974076
 30
0.0
  0
VERTEX
  5
2CB
330
2AE
100
AcDbEntity
  8
Layer 1
 62
    40
370
    13
100
AcDbVertex
100
AcDb2dVertex
 10
529.8215275846994
 20
488.2096554081926
 30
0.0
  0
SEQEND
  5
2CC
330
2AE
100
AcDbEntity
  8
Layer 1
 62
    40
370
    13
  0
POLYLINE
  5
2CD
330
212
100
AcDbEntity
  8
Layer 1
 62
    40
370
    13
100
AcDb2dPolyline
 66
     1
 10
0.0
 20
0.0
 30
0.0
  0
VERTEX
  5
2CE
330
2CD
100
AcDbEntity
  8
Layer 1
 62
    40
370
    13
100
AcDbVertex
100
AcDb2dVertex
 10
529.8215275846994
 20
371.8526104543718
 30
0.0
  0
VERTEX
  5
2CF
330
2CD
100
AcDbEntity
  8
Layer 1
 62
    40
370
    13
100
AcDbVertex
100
AcDb2dVertex
 10
530.9229246113338
 20
371.35976801336
 30
0.0
  0
VERTEX
  5
2D0
330
2CD
100
AcDbEntity
  8
Layer 1
 62
    40
370
    13
100
AcDbVertex
100
AcDb2dVertex
 10
531.9692431738977
 20
371.1787928411504
 30
0.0
  0
VERTEX
  5
2D1
330
2CD
100
AcDbEntity
  8
Layer 1
 62
    40
370
    13
100
AcDbVertex
100
AcDb2dVertex
 10
532.9076441203862
 20
371.3177809121335
 30
0.0
  0
VERTEX
  5
2D2
330
2CD
100
AcDbEntity
  8
Layer 1
 62
    40
370
    13
100
AcDbVertex
100
AcDb2dVertex
 10
533.6911449611191
 20
371.770401863355
 30
0.0
  0
VERTEX
  5
2D3
330
2CD
100
AcDbEntity
  8
Layer 1
 62
    40
370
    13
100
AcDbVertex
100
AcDb2dVertex
 10
534.2809883718875
 20
372.5137027461444
 30
0.0
  0
VERTEX
  5
2D4
330
2CD
100
AcDbEntity
  8
Layer 1
 62
    40
370
    13
100
AcDbVertex
100
AcDb2dVertex
 10
534.6472020219695
 20
373.5106487840354
 30
0.0
  0
VERTEX
  5
2D5
330
2CD
100
AcDbEntity
  8
Layer 1
 62
    40
370
    13
100
AcDbVertex
100
AcDb2dVertex
 10
534.7713546505192
 20
374.7108123918625
 30
0.0
  0
VERTEX
  5
2D6
330
2CD
100
AcDbEntity
  8
Layer 1
 62
    40
370
    13
100
AcDbVertex
100
AcDb2dVertex
 10
534.6472020219695
 20
376.0545288221907
 30
0.0
  0
VERTEX
  5
2D7
330
2CD
100
AcDbEntity
  8
Layer 1
 62
    40
370
    13
100
AcDbVertex
100
AcDb2dVertex
 10
534.2809883718875
 20
377.4737574391861
 30
0.0
  0
VERTEX
  5
2D8
330
2CD
100
AcDbEntity
  8
Layer 1
 62
    40
370
    13
100
AcDbVertex
100
AcDb2dVertex
 10
533.6911449611191
 20
378.8979168490948
 30
0.0
  0
VERTEX
  5
2D9
330
2CD
100
AcDbEntity
  8
Layer 1
 62
    40
370
    13
100
AcDbVertex
100
AcDb2dVertex
 10
532.9076441203862
 20
380.2554136613639
 30
0.0
  0
VERTEX
  5
2DA
330
2CD
100
AcDbEntity
  8
Layer 1
 62
    40
370
    13
100
AcDbVertex
100
AcDb2dVertex
 10
531.9692431738977
 20
381.4781426446194
 30
0.0
  0
VERTEX
  5
2DB
330
2CD
100
AcDbEntity
  8
Layer 1
 62
    40
370
    13
100
AcDbVertex
100
AcDb2dVertex
 10
530.9229246113338
 20
382.5047165036835
 30
0.0
  0
VERTEX
  5
2DC
330
2CD
100
AcDbEntity
  8
Layer 1
 62
    40
370
    13
100
AcDbVertex
100
AcDb2dVertex
 10
529.8215275846994
 20
383.2840186342938
 30
0.0
  0
VERTEX
  5
2DD
330
2CD
100
AcDbEntity
  8
Layer 1
 62
    40
370
    13
100
AcDbVertex
100
AcDb2dVertex
 10
528.7201736217586
 20
383.7764950339103
 30
0.0
  0
VERTEX
  5
2DE
330
2CD
100
AcDbEntity
  8
Layer 1
 62
    40
370
    13
100
AcDbVertex
100
AcDb2dVertex
 10
527.6738119955011
 20
383.9578147156683
 30
0.0
  0
VERTEX
  5
2DF
330
2CD
100
AcDbEntity
  8
Layer 1
 62
    40
370
    13
100
AcDbVertex
100
AcDb2dVertex
 10
526.7354541127062
 20
383.81846060329
 30
0.0
  0
VERTEX
  5
2E0
330
2CD
100
AcDbEntity
  8
Layer 1
 62
    40
370
    13
100
AcDbVertex
100
AcDb2dVertex
 10
525.9515656987311
 20
383.3662056934638
 30
0.0
  0
VERTEX
  5
2E1
330
2CD
100
AcDbEntity
  8
Layer 1
 62
    40
370
    13
100
AcDbVertex
100
AcDb2dVertex
 10
525.3617222879627
 20
382.6225603011259
 30
0.0
  0
VERTEX
  5
2E2
330
2CD
100
AcDbEntity
  8
Layer 1
 62
    40
370
    13
100
AcDbVertex
100
AcDb2dVertex
 10
524.9958962111228
 20
381.6259587727835
 30
0.0
  0
VERTEX
  5
2E3
330
2CD
100
AcDbEntity
  8
Layer 1
 62
    40
370
    13
100
AcDbVertex
100
AcDb2dVertex
 10
524.8717005188795
 20
380.4258166968031
 30
0.0
  0
VERTEX
  5
2E4
330
2CD
100
AcDbEntity
  8
Layer 1
 62
    40
370
    13
100
AcDbVertex
100
AcDb2dVertex
 10
524.9958962111228
 20
379.0820787346282
 30
0.0
  0
VERTEX
  5
2E5
330
2CD
100
AcDbEntity
  8
Layer 1
 62
    40
370
    13
100
AcDbVertex
100
AcDb2dVertex
 10
525.3617222879627
 20
377.6628501176327
 30
0.0
  0
VERTEX
  5
2E6
330
2CD
100
AcDbEntity
  8
Layer 1
 62
    40
370
    13
100
AcDbVertex
100
AcDb2dVertex
 10
525.9515656987311
 20
376.238690707724
 30
0.0
  0
VERTEX
  5
2E7
330
2CD
100
AcDbEntity
  8
Layer 1
 62
    40
370
    13
100
AcDbVertex
100
AcDb2dVertex
 10
526.7354541127062
 20
374.8811938954549
 30
0.0
  0
VERTEX
  5
2E8
330
2CD
100
AcDbEntity
  8
Layer 1
 62
    40
370
    13
100
AcDbVertex
100
AcDb2dVertex
 10
527.6738119955011
 20
373.6584649121993
 30
0.0
  0
VERTEX
  5
2E9
330
2CD
100
AcDbEntity
  8
Layer 1
 62
    40
370
    13
100
AcDbVertex
100
AcDb2dVertex
 10
528.7201736217586
 20
372.6315250117399
 30
0.0
  0
VERTEX
  5
2EA
330
2CD
100
AcDbEntity
  8
Layer 1
 62
    40
370
    13
100
AcDbVertex
100
AcDb2dVertex
 10
529.8215275846994
 20
371.8526104543718
 30
0.0
  0
SEQEND
  5
2EB
330
2CD
100
AcDbEntity
  8
Layer 1
 62
    40
370
    13
  0
POLYLINE
  5
2EC
330
212
100
AcDbEntity
  8
Layer 1
 62
    40
370
    13
100
AcDb2dPolyline
 66
     1
 10
0.0
 20
0.0
 30
0.0
  0
VERTEX
  5
2ED
330
2EC
100
AcDbEntity
  8
Layer 1
 62
    40
370
    13
100
AcDbVertex
100
AcDb2dVertex
 10
630.5839817831416
 20
313.6834220330417
 30
0.0
  0
VERTEX
  5
2EE
330
2EC
100
AcDbEntity
  8
Layer 1
 62
    40
370
    13
100
AcDbVertex
100
AcDb2dVertex
 10
631.685378809776
 20
313.1909456334252
 30
0.0
  0
VERTEX
  5
2EF
330
2EC
100
AcDbEntity
  8
Layer 1
 62
    40
370
    13
100
AcDbVertex
100
AcDb2dVertex
 10
632.7317404360334
 20
313.0096259516671
 30
0.0
  0
VERTEX
  5
2F0
330
2EC
100
AcDbEntity
  8
Layer 1
 62
    40
370
    13
100
AcDbVertex
100
AcDb2dVertex
 10
633.6700983188284
 20
313.1489585321987
 30
0.0
  0
VERTEX
  5
2F1
330
2EC
100
AcDbEntity
  8
Layer 1
 62
    40
370
    13
100
AcDbVertex
100
AcDb2dVertex
 10
634.454029796497
 20
313.6015794834202
 30
0.0
  0
VERTEX
  5
2F2
330
2EC
100
AcDbEntity
  8
Layer 1
 62
    40
370
    13
100
AcDbVertex
100
AcDb2dVertex
 10
635.0438301435718
 20
314.3448803662096
 30
0.0
  0
VERTEX
  5
2F3
330
2EC
100
AcDbEntity
  8
Layer 1
 62
    40
370
    13
100
AcDbVertex
100
AcDb2dVertex
 10
635.4096992841053
 20
315.341481894552
 30
0.0
  0
VERTEX
  5
2F4
330
2EC
100
AcDbEntity
  8
Layer 1
 62
    40
370
    13
100
AcDbVertex
100
AcDb2dVertex
 10
635.5338088489614
 20
316.5416239705324
 30
0.0
  0
VERTEX
  5
2F5
330
2EC
100
AcDbEntity
  8
Layer 1
 62
    40
370
    13
100
AcDbVertex
100
AcDb2dVertex
 10
635.4096992841053
 20
317.8853619327073
 30
0.0
  0
VERTEX
  5
2F6
330
2EC
100
AcDbEntity
  8
Layer 1
 62
    40
370
    13
100
AcDbVertex
100
AcDb2dVertex
 10
635.0438301435718
 20
319.3045905497028
 30
0.0
  0
VERTEX
  5
2F7
330
2EC
100
AcDbEntity
  8
Layer 1
 62
    40
370
    13
100
AcDbVertex
100
AcDb2dVertex
 10
634.454029796497
 20
320.7287499596115
 30
0.0
  0
VERTEX
  5
2F8
330
2EC
100
AcDbEntity
  8
Layer 1
 62
    40
370
    13
100
AcDbVertex
100
AcDb2dVertex
 10
633.6700983188284
 20
322.0862467718806
 30
0.0
  0
VERTEX
  5
2F9
330
2EC
100
AcDbEntity
  8
Layer 1
 62
    40
370
    13
100
AcDbVertex
100
AcDb2dVertex
 10
632.7317404360334
 20
323.3089757551361
 30
0.0
  0
VERTEX
  5
2FA
330
2EC
100
AcDbEntity
  8
Layer 1
 62
    40
370
    13
100
AcDbVertex
100
AcDb2dVertex
 10
631.685378809776
 20
324.3358941237487
 30
0.0
  0
VERTEX
  5
2FB
330
2EC
100
AcDbEntity
  8
Layer 1
 62
    40
370
    13
100
AcDbVertex
100
AcDb2dVertex
 10
630.5839817831416
 20
325.1148302129637
 30
0.0
  0
VERTEX
  5
2FC
330
2EC
100
AcDbEntity
  8
Layer 1
 62
    40
370
    13
100
AcDbVertex
100
AcDb2dVertex
 10
629.4826708838943
 20
325.6076726539755
 30
0.0
  0
VERTEX
  5
2FD
330
2EC
100
AcDbEntity
  8
Layer 1
 62
    40
370
    13
100
AcDbVertex
100
AcDb2dVertex
 10
628.4366537671854
 20
325.7886478261851
 30
0.0
  0
VERTEX
  5
2FE
330
2EC
100
AcDbEntity
  8
Layer 1
 62
    40
370
    13
100
AcDbVertex
100
AcDb2dVertex
 10
627.4979513748419
 20
325.6496382233552
 30
0.0
  0
VERTEX
  5
2FF
330
2EC
100
AcDbEntity
  8
Layer 1
 62
    40
370
    13
100
AcDbVertex
100
AcDb2dVertex
 10
626.7143644067219
 20
325.1970388039805
 30
0.0
  0
VERTEX
  5
300
330
2EC
100
AcDbEntity
  8
Layer 1
 62
    40
370
    13
100
AcDbVertex
100
AcDb2dVertex
 10
626.124564059647
 20
324.4537379211911
 30
0.0
  0
VERTEX
  5
301
330
2EC
100
AcDbEntity
  8
Layer 1
 62
    40
370
    13
100
AcDbVertex
100
AcDb2dVertex
 10
625.758350409565
 20
323.4567703514534
 30
0.0
  0
VERTEX
  5
302
330
2EC
100
AcDbEntity
  8
Layer 1
 62
    40
370
    13
100
AcDbVertex
100
AcDb2dVertex
 10
625.6345853542574
 20
322.256628275473
 30
0.0
  0
VERTEX
  5
303
330
2EC
100
AcDbEntity
  8
Layer 1
 62
    40
370
    13
100
AcDbVertex
100
AcDb2dVertex
 10
625.758350409565
 20
320.9132563546934
 30
0.0
  0
VERTEX
  5
304
330
2EC
100
AcDbEntity
  8
Layer 1
 62
    40
370
    13
100
AcDbVertex
100
AcDb2dVertex
 10
626.124564059647
 20
319.4936832281494
 30
0.0
  0
VERTEX
  5
305
330
2EC
100
AcDbEntity
  8
Layer 1
 62
    40
370
    13
100
AcDbVertex
100
AcDb2dVertex
 10
626.7143644067219
 20
318.0695022863939
 30
0.0
  0
VERTEX
  5
306
330
2EC
100
AcDbEntity
  8
Layer 1
 62
    40
370
    13
100
AcDbVertex
100
AcDb2dVertex
 10
627.4979513748419
 20
316.7120270059715
 30
0.0
  0
VERTEX
  5
307
330
2EC
100
AcDbEntity
  8
Layer 1
 62
    40
370
    13
100
AcDbVertex
100
AcDb2dVertex
 10
628.4366537671854
 20
315.4892980227161
 30
0.0
  0
VERTEX
  5
308
330
2EC
100
AcDbEntity
  8
Layer 1
 62
    40
370
    13
100
AcDbVertex
100
AcDb2dVertex
 10
629.4826708838943
 20
314.4627026318051
 30
0.0
  0
VERTEX
  5
309
330
2EC
100
AcDbEntity
  8
Layer 1
 62
    40
370
    13
100
AcDbVertex
100
AcDb2dVertex
 10
630.5839817831416
 20
313.6834220330417
 30
0.0
  0
SEQEND
  5
30A
330
2EC
100
AcDbEntity
  8
Layer 1
 62
    40
370
    13
  0
POLYLINE
  5
30B
330
212
100
AcDbEntity
  8
Layer 1
 62
    40
370
    13
100
AcDb2dPolyline
 66
     1
 10
0.0
 20
0.0
 30
0.0
  0
VERTEX
  5
30C
330
30B
100
AcDbEntity
  8
Layer 1
 62
    40
370
    13
100
AcDbVertex
100
AcDb2dVertex
 10
681.495861246325
 20
284.2927956840525
 30
0.0
  0
VERTEX
  5
30D
330
30B
100
AcDbEntity
  8
Layer 1
 62
    40
370
    13
100
AcDbVertex
100
AcDb2dVertex
 10
682.5972582729595
 20
283.8003192844361
 30
0.0
  0
VERTEX
  5
30E
330
30B
100
AcDbEntity
  8
Layer 1
 62
    40
370
    13
100
AcDbVertex
100
AcDb2dVertex
 10
683.6435337718298
 20
283.618999602678
 30
0.0
  0
VERTEX
  5
30F
330
30B
100
AcDbEntity
  8
Layer 1
 62
    40
370
    13
100
AcDbVertex
100
AcDb2dVertex
 10
684.5819777820119
 20
283.757987673661
 30
0.0
  0
VERTEX
  5
310
330
30B
100
AcDbEntity
  8
Layer 1
 62
    40
370
    13
100
AcDbVertex
100
AcDb2dVertex
 10
685.3658231322934
 20
284.2106086248825
 30
0.0
  0
VERTEX
  5
311
330
30B
100
AcDbEntity
  8
Layer 1
 62
    40
370
    13
100
AcDbVertex
100
AcDb2dVertex
 10
685.9552789698196
 20
284.9539095076719
 30
0.0
  0
VERTEX
  5
312
330
30B
100
AcDbEntity
  8
Layer 1
 62
    40
370
    13
100
AcDbVertex
100
AcDb2dVertex
 10
686.3214926199016
 20
285.9508555455629
 30
0.0
  0
VERTEX
  5
313
330
30B
100
AcDbEntity
  8
Layer 1
 62
    40
370
    13
100
AcDbVertex
100
AcDb2dVertex
 10
686.4456883121449
 20
287.1510191533901
 30
0.0
  0
VERTEX
  5
314
330
30B
100
AcDbEntity
  8
Layer 1
 62
    40
370
    13
100
AcDbVertex
100
AcDb2dVertex
 10
686.3214926199016
 20
288.4947355837182
 30
0.0
  0
VERTEX
  5
315
330
30B
100
AcDbEntity
  8
Layer 1
 62
    40
370
    13
100
AcDbVertex
100
AcDb2dVertex
 10
685.9552789698196
 20
289.9139642007136
 30
0.0
  0
VERTEX
  5
316
330
30B
100
AcDbEntity
  8
Layer 1
 62
    40
370
    13
100
AcDbVertex
100
AcDb2dVertex
 10
685.3658231322934
 20
291.3381236106223
 30
0.0
  0
VERTEX
  5
317
330
30B
100
AcDbEntity
  8
Layer 1
 62
    40
370
    13
100
AcDbVertex
100
AcDb2dVertex
 10
684.5819777820119
 20
292.6956204228915
 30
0.0
  0
VERTEX
  5
318
330
30B
100
AcDbEntity
  8
Layer 1
 62
    40
370
    13
100
AcDbVertex
100
AcDb2dVertex
 10
683.6435337718298
 20
293.918349406147
 30
0.0
  0
VERTEX
  5
319
330
30B
100
AcDbEntity
  8
Layer 1
 62
    40
370
    13
100
AcDbVertex
100
AcDb2dVertex
 10
682.5972582729595
 20
294.9452893066064
 30
0.0
  0
VERTEX
  5
31A
330
30B
100
AcDbEntity
  8
Layer 1
 62
    40
370
    13
100
AcDbVertex
100
AcDb2dVertex
 10
681.495861246325
 20
295.7242038639746
 30
0.0
  0
VERTEX
  5
31B
330
30B
100
AcDbEntity
  8
Layer 1
 62
    40
370
    13
100
AcDbVertex
100
AcDb2dVertex
 10
680.3944642196907
 20
296.2167017954379
 30
0.0
  0
VERTEX
  5
31C
330
30B
100
AcDbEntity
  8
Layer 1
 62
    40
370
    13
100
AcDbVertex
100
AcDb2dVertex
 10
679.3481025934332
 20
296.3980214771959
 30
0.0
  0
VERTEX
  5
31D
330
30B
100
AcDbEntity
  8
Layer 1
 62
    40
370
    13
100
AcDbVertex
100
AcDb2dVertex
 10
678.4097447106383
 20
296.2590334062128
 30
0.0
  0
VERTEX
  5
31E
330
30B
100
AcDbEntity
  8
Layer 1
 62
    40
370
    13
100
AcDbVertex
100
AcDb2dVertex
 10
677.6258993603568
 20
295.8064124549913
 30
0.0
  0
VERTEX
  5
31F
330
30B
100
AcDbEntity
  8
Layer 1
 62
    40
370
    13
100
AcDbVertex
100
AcDb2dVertex
 10
677.0363573954435
 20
295.0627455308066
 30
0.0
  0
VERTEX
  5
320
330
30B
100
AcDbEntity
  8
Layer 1
 62
    40
370
    13
100
AcDbVertex
100
AcDb2dVertex
 10
676.6702298727485
 20
294.066165534311
 30
0.0
  0
VERTEX
  5
321
330
30B
100
AcDbEntity
  8
Layer 1
 62
    40
370
    13
100
AcDbVertex
100
AcDb2dVertex
 10
676.5460341805052
 20
292.8660019264839
 30
0.0
  0
VERTEX
  5
322
330
30B
100
AcDbEntity
  8
Layer 1
 62
    40
370
    13
100
AcDbVertex
100
AcDb2dVertex
 10
676.6702298727485
 20
291.5222854961557
 30
0.0
  0
VERTEX
  5
323
330
30B
100
AcDbEntity
  8
Layer 1
 62
    40
370
    13
100
AcDbVertex
100
AcDb2dVertex
 10
677.0363573954435
 20
290.1030568791602
 30
0.0
  0
VERTEX
  5
324
330
30B
100
AcDbEntity
  8
Layer 1
 62
    40
370
    13
100
AcDbVertex
100
AcDb2dVertex
 10
677.6258993603568
 20
288.6788974692515
 30
0.0
  0
VERTEX
  5
325
330
30B
100
AcDbEntity
  8
Layer 1
 62
    40
370
    13
100
AcDbVertex
100
AcDb2dVertex
 10
678.4097447106383
 20
287.3214006569824
 30
0.0
  0
VERTEX
  5
326
330
30B
100
AcDbEntity
  8
Layer 1
 62
    40
370
    13
100
AcDbVertex
100
AcDb2dVertex
 10
679.3481025934332
 20
286.0986716737269
 30
0.0
  0
VERTEX
  5
327
330
30B
100
AcDbEntity
  8
Layer 1
 62
    40
370
    13
100
AcDbVertex
100
AcDb2dVertex
 10
680.3944642196907
 20
285.0717317732675
 30
0.0
  0
VERTEX
  5
328
330
30B
100
AcDbEntity
  8
Layer 1
 62
    40
370
    13
100
AcDbVertex
100
AcDb2dVertex
 10
681.495861246325
 20
284.2927956840525
 30
0.0
  0
SEQEND
  5
329
330
30B
100
AcDbEntity
  8
Layer 1
 62
    40
370
    13
  0
POLYLINE
  5
32A
330
212
100
AcDbEntity
  8
Layer 1
 62
    40
370
    13
100
AcDb2dPolyline
 66
     1
 10
0.0
 20
0.0
 30
0.0
  0
VERTEX
  5
32B
330
32A
100
AcDbEntity
  8
Layer 1
 62
    40
370
    13
100
AcDbVertex
100
AcDb2dVertex
 10
556.3380830251189
 20
392.8809780638608
 30
0.0
  0
VERTEX
  5
32C
330
32A
100
AcDbEntity
  8
Layer 1
 62
    40
370
    13
100
AcDbVertex
100
AcDb2dVertex
 10
556.3380830251189
 20
556.1892269244009
 30
0.0
  0
SEQEND
  5
32D
330
32A
100
AcDbEntity
  8
Layer 1
 62
    40
370
    13
  0
POLYLINE
  5
32E
330
212
100
AcDbEntity
  8
Layer 1
 62
    40
370
    13
100
AcDb2dPolyline
 66
     1
 10
0.0
 20
0.0
 30
0.0
  0
VERTEX
  5
32F
330
32E
100
AcDbEntity
  8
Layer 1
 62
    40
370
    13
100
AcDbVertex
100
AcDb2dVertex
 10
556.3380830251189
 20
556.1892269244009
 30
0.0
  0
VERTEX
  5
330
330
32E
100
AcDbEntity
  8
Layer 1
 62
    40
370
    13
100
AcDbVertex
100
AcDb2dVertex
 10
503.3050152079735
 20
586.8043263362349
 30
0.0
  0
SEQEND
  5
331
330
32E
100
AcDbEntity
  8
Layer 1
 62
    40
370
    13
  0
POLYLINE
  5
332
330
212
100
AcDbEntity
  8
Layer 1
 62
    40
370
    13
100
AcDb2dPolyline
 66
     1
 10
0.0
 20
0.0
 30
0.0
  0
VERTEX
  5
333
330
332
100
AcDbEntity
  8
Layer 1
 62
    40
370
    13
100
AcDbVertex
100
AcDb2dVertex
 10
503.3050152079735
 20
586.8043263362349
 30
0.0
  0
VERTEX
  5
334
330
332
100
AcDbEntity
  8
Layer 1
 62
    40
370
    13
100
AcDbVertex
100
AcDb2dVertex
 10
503.3050152079735
 20
362.2556294929581
 30
0.0
  0
SEQEND
  5
335
330
332
100
AcDbEntity
  8
Layer 1
 62
    40
370
    13
  0
POLYLINE
  5
336
330
212
100
AcDbEntity
  8
Layer 1
 62
    40
370
    13
100
AcDb2dPolyline
 66
     1
 10
0.0
 20
0.0
 30
0.0
  0
VERTEX
  5
337
330
336
100
AcDbEntity
  8
Layer 1
 62
    40
370
    13
100
AcDbVertex
100
AcDb2dVertex
 10
503.3050152079735
 20
362.2556294929581
 30
0.0
  0
VERTEX
  5
338
330
336
100
AcDbEntity
  8
Layer 1
 62
    40
370
    13
100
AcDbVertex
100
AcDb2dVertex
 10
697.7592957583182
 20
249.999636970702
 30
0.0
  0
SEQEND
  5
339
330
336
100
AcDbEntity
  8
Layer 1
 62
    40
370
    13
  0
POLYLINE
  5
33A
330
212
100
AcDbEntity
  8
Layer 1
 62
    40
370
    13
100
AcDb2dPolyline
 66
     1
 10
0.0
 20
0.0
 30
0.0
  0
VERTEX
  5
33B
330
33A
100
AcDbEntity
  8
Layer 1
 62
    40
370
    13
100
AcDbVertex
100
AcDb2dVertex
 10
697.7592957583182
 20
249.999636970702
 30
0.0
  0
VERTEX
  5
33C
330
33A
100
AcDbEntity
  8
Layer 1
 62
    40
370
    13
100
AcDbVertex
100
AcDb2dVertex
 10
697.7592957583182
 20
311.2400957193621
 30
0.0
  0
SEQEND
  5
33D
330
33A
100
AcDbEntity
  8
Layer 1
 62
    40
370
    13
  0
POLYLINE
  5
33E
330
212
100
AcDbEntity
  8
Layer 1
 62
    40
370
    13
100
AcDb2dPolyline
 66
     1
 10
0.0
 20
0.0
 30
0.0
  0
VERTEX
  5
33F
330
33E
100
AcDbEntity
  8
Layer 1
 62
    40
370
    13
100
AcDbVertex
100
AcDb2dVertex
 10
697.7592957583182
 20
311.2400957193621
 30
0.0
  0
VERTEX
  5
340
330
33E
100
AcDbEntity
  8
Layer 1
 62
    40
370
    13
100
AcDbVertex
100
AcDb2dVertex
 10
556.3380830251189
 20
392.8809780638608
 30
0.0
  0
SEQEND
  5
341
330
33E
100
AcDbEntity
  8
Layer 1
 62
    40
370
    13
  0
ENDBLK
  5
215
330
212
100
AcDbEntity
  8
0
100
AcDbBlockEnd
  0
BLOCK
  5
344
330
342
100
AcDbEntity
  8
0
100
AcDbBlockBegin
  2
block 10
 70
     0
 10
0.0
 20
0.0
 30
0.0
  3
block 10
  1

  0
POLYLINE
  5
346
330
342
100
AcDbEntity
  8
Layer 1
370
     0
100
AcDb2dPolyline
 66
     1
 10
0.0
 20
0.0
 30
0.0
  0
VERTEX
  5
347
330
346
100
AcDbEntity
  8
Layer 1
370
     0
100
AcDbVertex
100
AcDb2dVertex
 10
682.7631396205722
 20
241.1383988551164
 30
0.0
  0
VERTEX
  5
348
330
346
100
AcDbEntity
  8
Layer 1
370
     0
100
AcDbVertex
100
AcDb2dVertex
 10
682.7631396205722
 20
261.7802077979741
 30
0.0
  0
VERTEX
  5
349
330
346
100
AcDbEntity
  8
Layer 1
370
     0
100
AcDbVertex
100
AcDb2dVertex
 10
684.7393325183007
 20
261.7802077979741
 30
0.0
  0
VERTEX
  5
34A
330
346
100
AcDbEntity
  8
Layer 1
370
     0
100
AcDbVertex
100
AcDb2dVertex
 10
684.7393325183007
 20
266.4379768940319
 30
0.0
  0
VERTEX
  5
34B
330
346
100
AcDbEntity
  8
Layer 1
370
     0
100
AcDbVertex
100
AcDb2dVertex
 10
680.0815634222429
 20
266.4379768940319
 30
0.0
  0
VERTEX
  5
34C
330
346
100
AcDbEntity
  8
Layer 1
370
     0
100
AcDbVertex
100
AcDb2dVertex
 10
680.0815634222429
 20
261.7802077979741
 30
0.0
  0
VERTEX
  5
34D
330
346
100
AcDbEntity
  8
Layer 1
370
     0
100
AcDbVertex
100
AcDb2dVertex
 10
682.0575840651932
 20
261.7802077979741
 30
0.0
  0
VERTEX
  5
34E
330
346
100
AcDbEntity
  8
Layer 1
370
     0
100
AcDbVertex
100
AcDb2dVertex
 10
682.0575840651932
 20
240.4328432997372
 30
0.0
  0
VERTEX
  5
34F
330
346
100
AcDbEntity
  8
Layer 1
370
     0
100
AcDbVertex
100
AcDb2dVertex
 10
781.1130365143877
 20
240.4328432997372
 30
0.0
  0
VERTEX
  5
350
330
346
100
AcDbEntity
  8
Layer 1
370
     0
100
AcDbVertex
100
AcDb2dVertex
 10
781.1130365143877
 20
241.1383988551164
 30
0.0
  0
VERTEX
  5
351
330
346
100
AcDbEntity
  8
Layer 1
370
     0
100
AcDbVertex
100
AcDb2dVertex
 10
682.7631396205722
 20
241.1383988551164
 30
0.0
  0
SEQEND
  5
353
330
346
100
AcDbEntity
  8
Layer 1
370
     0
  0
HATCH
  5
352
330
342
100
AcDbEntity
  8
Layer 1
 62
     7
100
AcDbHatch
 10
0.0
 20
0.0
 30
0.0
210
0.0
220
0.0
230
1.0
  2
SOLID
 70
     1
 71
     0
 91
        1
 92
        1
 93
       10
 72
     1
 10
682.7631396205722
 20
241.1383988551164
 11
682.7631396205722
 21
261.7802077979741
 72
     1
 10
682.7631396205722
 20
261.7802077979741
 11
684.7393325183007
 21
261.7802077979741
 72
     1
 10
684.7393325183007
 20
261.7802077979741
 11
684.7393325183007
 21
266.4379768940319
 72
     1
 10
684.7393325183007
 20
266.4379768940319
 11
680.0815634222429
 21
266.4379768940319
 72
     1
 10
680.0815634222429
 20
266.4379768940319
 11
680.0815634222429
 21
261.7802077979741
 72
     1
 10
680.0815634222429
 20
261.7802077979741
 11
682.0575840651932
 21
261.7802077979741
 72
     1
 10
682.0575840651932
 20
261.7802077979741
 11
682.0575840651932
 21
240.4328432997372
 72
     1
 10
682.0575840651932
 20
240.4328432997372
 11
781.1130365143877
 21
240.4328432997372
 72
     1
 10
781.1130365143877
 20
240.4328432997372
 11
781.1130365143877
 21
241.1383988551164
 72
     1
 10
781.1130365143877
 20
241.1383988551164
 11
682.7631396205722
 21
241.1383988551164
 97
        0
 75
     2
 76
     1
 98
        0
  0
INSERT
  5
355
330
342
100
AcDbEntity
  8
Layer 1
100
AcDbBlockReference
  2
block 11
 10
0.0
 20
0.0
 30
0.0
  0
ENDBLK
  5
345
330
342
100
AcDbEntity
  8
0
100
AcDbBlockEnd
  0
BLOCK
  5
356
330
354
100
AcDbEntity
  8
0
100
AcDbBlockBegin
  2
block 11
 70
     0
 10
0.0
 20
0.0
 30
0.0
  3
block 11
  1

  0
SPLINE
  5
358
330
354
100
AcDbEntity
  8
Layer 1
370
     0
100
AcDbSpline
210
0.0
220
0.0
230
1.0
 70
    11
 71
     3
 72
    26
 73
    22
 74
     0
 42
0.0000000001
 43
0.0000000001
 12
1.0
 22
0.0
 32
0.0
 13
1.0
 23
0.0
 33
0.0
 40
0.0
 40
0.0
 40
0.0
 40
0.0
 40
1.0
 40
1.0
 40
1.0
 40
2.0
 40
2.0
 40
2.0
 40
3.0
 40
3.0
 40
3.0
 40
4.0
 40
4.0
 40
4.0
 40
5.0
 40
5.0
 40
5.0
 40
6.0
 40
6.0
 40
6.0
 40
7.0
 40
7.0
 40
7.0
 40
7.0
 10
786.8584307928687
 20
243.6719481812695
 30
0.0
 10
788.0438881493433
 20
243.6719481812695
 30
0.0
 10
788.7298066604565
 20
243.002910638034
 30
0.0
 10
788.7298066604565
 20
241.9783392407207
 30
0.0
 10
788.7298066604565
 20
241.3093016974852
 30
0.0
 10
788.289178947893
 20
240.885899462348
 30
0.0
 10
787.984632506997
 20
240.7336262418999
 30
0.0
 10
788.3570473289525
 20
240.5641275440256
 30
0.0
 10
788.8228242385583
 20
240.183099983357
 30
0.0
 10
788.8228242385583
 20
239.3790146970997
 30
0.0
 10
788.8228242385583
 20
238.2528129829715
 30
0.0
 10
788.0438881493433
 20
237.6430310820823
 30
0.0
 10
786.9683293388482
 20
237.6430310820823
 30
0.0
 10
786.9683293388482
 20
237.6430310820823
 30
0.0
 10
784.4451414054513
 20
237.6430310820823
 30
0.0
 10
784.4451414054513
 20
237.6430310820823
 30
0.0
 10
784.4451414054513
 20
237.6430310820823
 30
0.0
 10
784.4451414054513
 20
243.6719481812695
 30
0.0
 10
784.4451414054513
 20
243.6719481812695
 30
0.0
 10
784.4451414054513
 20
243.6719481812695
 30
0.0
 10
786.8584307928687
 20
243.6719481812695
 30
0.0
 10
786.8584307928687
 20
243.6719481812695
 30
0.0
  0
SPLINE
  5
359
330
354
100
AcDbEntity
  8
Layer 1
370
     0
100
AcDbSpline
210
0.0
220
0.0
230
1.0
 70
    11
 71
     3
 72
    20
 73
    16
 74
     0
 42
0.0000000001
 43
0.0000000001
 12
1.0
 22
0.0
 32
0.0
 13
1.0
 23
0.0
 33
0.0
 40
0.0
 40
0.0
 40
0.0
 40
0.0
 40
1.0
 40
1.0
 40
1.0
 40
2.0
 40
2.0
 40
2.0
 40
3.0
 40
3.0
 40
3.0
 40
4.0
 40
4.0
 40
4.0
 40
5.0
 40
5.0
 40
5.0
 40
5.0
 10
785.6219860232126
 20
242.6218830773654
 30
0.0
 10
785.6219860232126
 20
242.6218830773654
 30
0.0
 10
785.6219860232126
 20
241.2248968580966
 30
0.0
 10
785.6219860232126
 20
241.2248968580966
 30
0.0
 10
785.6219860232126
 20
241.2248968580966
 30
0.0
 10
786.7822941826447
 20
241.2248968580966
 30
0.0
 10
786.7822941826447
 20
241.2248968580966
 30
0.0
 10
787.281833028006
 20
241.2248968580966
 30
0.0
 10
787.5526175331466
 20
241.5042941019503
 30
0.0
 10
787.5526175331466
 20
241.9276963370875
 30
0.0
 10
787.5526175331466
 20
242.3424858335116
 30
0.0
 10
787.281833028006
 20
242.6218830773654
 30
0.0
 10
786.7822941826447
 20
242.6218830773654
 30
0.0
 10
786.7822941826447
 20
242.6218830773654
 30
0.0
 10
785.6219860232126
 20
242.6218830773654
 30
0.0
 10
785.6219860232126
 20
242.6218830773654
 30
0.0
  0
SPLINE
  5
35A
330
354
100
AcDbEntity
  8
Layer 1
370
     0
100
AcDbSpline
210
0.0
220
0.0
230
1.0
 70
    11
 71
     3
 72
    20
 73
    16
 74
     0
 42
0.0000000001
 43
0.0000000001
 12
1.0
 22
0.0
 32
0.0
 13
1.0
 23
0.0
 33
0.0
 40
0.0
 40
0.0
 40
0.0
 40
0.0
 40
1.0
 40
1.0
 40
1.0
 40
2.0
 40
2.0
 40
2.0
 40
3.0
 40
3.0
 40
3.0
 40
4.0
 40
4.0
 40
4.0
 40
5.0
 40
5.0
 40
5.0
 40
5.0
 10
785.6219860232126
 20
240.1748317541924
 30
0.0
 10
785.6219860232126
 20
240.1748317541924
 30
0.0
 10
785.6219860232126
 20
238.6930961859865
 30
0.0
 10
785.6219860232126
 20
238.6930961859865
 30
0.0
 10
785.6219860232126
 20
238.6930961859865
 30
0.0
 10
786.8584307928687
 20
238.6930961859865
 30
0.0
 10
786.8584307928687
 20
238.6930961859865
 30
0.0
 10
787.3834633448208
 20
238.6930961859865
 30
0.0
 10
787.6459796207969
 20
239.0148681043088
 30
0.0
 10
787.6459796207969
 20
239.438270339446
 30
0.0
 10
787.6459796207969
 20
239.8530598358701
 30
0.0
 10
787.3834633448208
 20
240.1748317541924
 30
0.0
 10
786.8584307928687
 20
240.1748317541924
 30
0.0
 10
786.8584307928687
 20
240.1748317541924
 30
0.0
 10
785.6219860232126
 20
240.1748317541924
 30
0.0
 10
785.6219860232126
 20
240.1748317541924
 30
0.0
  0
HATCH
  5
35B
330
354
100
AcDbEntity
  8
Layer 1
 62
     7
100
AcDbHatch
 10
0.0
 20
0.0
 30
0.0
210
0.0
220
0.0
230
1.0
  2
SOLID
 70
     1
 71
     0
 91
        3
 92
        1
 93
        1
 72
     4
 94
        3
 73
     0
 74
     1
 95
       26
 96
       22
 40
0.0
 40
0.0
 40
0.0
 40
0.0
 40
1.0
 40
1.0
 40
1.0
 40
2.0
 40
2.0
 40
2.0
 40
3.0
 40
3.0
 40
3.0
 40
4.0
 40
4.0
 40
4.0
 40
5.0
 40
5.0
 40
5.0
 40
6.0
 40
6.0
 40
6.0
 40
7.0
 40
7.0
 40
7.0
 40
7.0
 10
786.8584307928687
 20
243.6719481812695
 10
788.0438881493433
 20
243.6719481812695
 10
788.7298066604565
 20
243.002910638034
 10
788.7298066604565
 20
241.9783392407207
 10
788.7298066604565
 20
241.3093016974852
 10
788.289178947893
 20
240.885899462348
 10
787.984632506997
 20
240.7336262418999
 10
788.3570473289525
 20
240.5641275440256
 10
788.8228242385583
 20
240.183099983357
 10
788.8228242385583
 20
239.3790146970997
 10
788.8228242385583
 20
238.2528129829715
 10
788.0438881493433
 20
237.6430310820823
 10
786.9683293388482
 20
237.6430310820823
 10
786.9683293388482
 20
237.6430310820823
 10
784.4451414054513
 20
237.6430310820823
 10
784.4451414054513
 20
237.6430310820823
 10
784.4451414054513
 20
237.6430310820823
 10
784.4451414054513
 20
243.6719481812695
 10
784.4451414054513
 20
243.6719481812695
 10
784.4451414054513
 20
243.6719481812695
 10
786.8584307928687
 20
243.6719481812695
 10
786.8584307928687
 20
243.6719481812695
 97
        0
 92
        1
 93
        1
 72
     4
 94
        3
 73
     0
 74
     1
 95
       20
 96
       16
 40
0.0
 40
0.0
 40
0.0
 40
0.0
 40
1.0
 40
1.0
 40
1.0
 40
2.0
 40
2.0
 40
2.0
 40
3.0
 40
3.0
 40
3.0
 40
4.0
 40
4.0
 40
4.0
 40
5.0
 40
5.0
 40
5.0
 40
5.0
 10
785.6219860232126
 20
242.6218830773654
 10
785.6219860232126
 20
242.6218830773654
 10
785.6219860232126
 20
241.2248968580966
 10
785.6219860232126
 20
241.2248968580966
 10
785.6219860232126
 20
241.2248968580966
 10
786.7822941826447
 20
241.2248968580966
 10
786.7822941826447
 20
241.2248968580966
 10
787.281833028006
 20
241.2248968580966
 10
787.5526175331466
 20
241.5042941019503
 10
787.5526175331466
 20
241.9276963370875
 10
787.5526175331466
 20
242.3424858335116
 10
787.281833028006
 20
242.6218830773654
 10
786.7822941826447
 20
242.6218830773654
 10
786.7822941826447
 20
242.6218830773654
 10
785.6219860232126
 20
242.6218830773654
 10
785.6219860232126
 20
242.6218830773654
 97
        0
 92
        1
 93
        1
 72
     4
 94
        3
 73
     0
 74
     1
 95
       20
 96
       16
 40
0.0
 40
0.0
 40
0.0
 40
0.0
 40
1.0
 40
1.0
 40
1.0
 40
2.0
 40
2.0
 40
2.0
 40
3.0
 40
3.0
 40
3.0
 40
4.0
 40
4.0
 40
4.0
 40
5.0
 40
5.0
 40
5.0
 40
5.0
 10
785.6219860232126
 20
240.1748317541924
 10
785.6219860232126
 20
240.1748317541924
 10
785.6219860232126
 20
238.6930961859865
 10
785.6219860232126
 20
238.6930961859865
 10
785.6219860232126
 20
238.6930961859865
 10
786.8584307928687
 20
238.6930961859865
 10
786.8584307928687
 20
238.6930961859865
 10
787.3834633448208
 20
238.6930961859865
 10
787.6459796207969
 20
239.0148681043088
 10
787.6459796207969
 20
239.438270339446
 10
787.6459796207969
 20
239.8530598358701
 10
787.3834633448208
 20
240.1748317541924
 10
786.8584307928687
 20
240.1748317541924
 10
786.8584307928687
 20
240.1748317541924
 10
785.6219860232126
 20
240.1748317541924
 10
785.6219860232126
 20
240.1748317541924
 97
        0
 75
     2
 76
     1
 98
        0
  0
SPLINE
  5
35C
330
354
100
AcDbEntity
  8
Layer 1
370
     0
100
AcDbSpline
210
0.0
220
0.0
230
1.0
 70
    11
 71
     3
 72
    29
 73
    25
 74
     0
 42
0.0000000001
 43
0.0000000001
 12
1.0
 22
0.0
 32
0.0
 13
1.0
 23
0.0
 33
0.0
 40
0.0
 40
0.0
 40
0.0
 40
0.0
 40
1.0
 40
1.0
 40
1.0
 40
2.0
 40
2.0
 40
2.0
 40
3.0
 40
3.0
 40
3.0
 40
4.0
 40
4.0
 40
4.0
 40
5.0
 40
5.0
 40
5.0
 40
6.0
 40
6.0
 40
6.0
 40
7.0
 40
7.0
 40
7.0
 40
8.0
 40
8.0
 40
8.0
 40
8.0
 10
793.6149520585408
 20
243.0876599869711
 30
0.0
 10
794.2161212207168
 20
242.4947590539597
 30
0.0
 10
794.2243894498814
 20
241.8088405428464
 30
0.0
 10
794.2243894498814
 20
240.6574896316759
 30
0.0
 10
794.2243894498814
 20
239.5057942109569
 30
0.0
 10
794.2161212207168
 20
238.8198756998437
 30
0.0
 10
793.6149520585408
 20
238.2273192763807
 30
0.0
 10
793.1998180525682
 20
237.8207980091212
 30
0.0
 10
792.6920109780423
 20
237.5923881784491
 30
0.0
 10
791.9974797282159
 20
237.5923881784491
 30
0.0
 10
791.3032929879381
 20
237.5923881784491
 30
0.0
 10
790.7951414038638
 20
237.8207980091212
 30
0.0
 10
790.3803519074397
 20
238.2273192763807
 30
0.0
 10
789.7791827452636
 20
238.8284884385568
 30
0.0
 10
789.7705700065504
 20
239.5057942109569
 30
0.0
 10
789.7705700065504
 20
240.6574896316759
 30
0.0
 10
789.7705700065504
 20
241.8088405428464
 30
0.0
 10
789.7791827452636
 20
242.4864908247951
 30
0.0
 10
790.3803519074397
 20
243.0876599869711
 30
0.0
 10
790.7951414038638
 20
243.4938367446821
 30
0.0
 10
791.3032929879381
 20
243.7225910849027
 30
0.0
 10
791.9974797282159
 20
243.7225910849027
 30
0.0
 10
792.6920109780423
 20
243.7225910849027
 30
0.0
 10
793.1998180525682
 20
243.4938367446821
 30
0.0
 10
793.6149520585408
 20
243.0876599869711
 30
0.0
  0
SPLINE
  5
35D
330
354
100
AcDbEntity
  8
Layer 1
370
     0
100
AcDbSpline
210
0.0
220
0.0
230
1.0
 70
    11
 71
     3
 72
    29
 73
    25
 74
     0
 42
0.0000000001
 43
0.0000000001
 12
1.0
 22
0.0
 32
0.0
 13
1.0
 23
0.0
 33
0.0
 40
0.0
 40
0.0
 40
0.0
 40
0.0
 40
1.0
 40
1.0
 40
1.0
 40
2.0
 40
2.0
 40
2.0
 40
3.0
 40
3.0
 40
3.0
 40
4.0
 40
4.0
 40
4.0
 40
5.0
 40
5.0
 40
5.0
 40
6.0
 40
6.0
 40
6.0
 40
7.0
 40
7.0
 40
7.0
 40
8.0
 40
8.0
 40
8.0
 40
8.0
 10
791.2440373455918
 20
242.3507540626762
 30
0.0
 10
791.0152830053712
 20
242.0968505254133
 30
0.0
 10
790.9474146243118
 20
241.8088405428464
 30
0.0
 10
790.9474146243118
 20
240.6574896316759
 30
0.0
 10
790.9474146243118
 20
239.5057942109569
 30
0.0
 10
791.0152830053712
 20
239.2263969671031
 30
0.0
 10
791.2440373455918
 20
238.9724934298402
 30
0.0
 10
791.4131915339176
 20
238.7775010253751
 30
0.0
 10
791.6757078098937
 20
238.6421087728048
 30
0.0
 10
791.9974797282159
 20
238.6421087728048
 30
0.0
 10
792.3192516465383
 20
238.6421087728048
 30
0.0
 10
792.5817679225144
 20
238.7775010253751
 30
0.0
 10
792.7512666203886
 20
238.9724934298402
 30
0.0
 10
792.9796764510606
 20
239.2263969671031
 30
0.0
 10
793.0475448321201
 20
239.5057942109569
 30
0.0
 10
793.0475448321201
 20
240.6574896316759
 30
0.0
 10
793.0475448321201
 20
241.8088405428464
 30
0.0
 10
792.9796764510606
 20
242.0968505254133
 30
0.0
 10
792.7512666203886
 20
242.3507540626762
 30
0.0
 10
792.5817679225144
 20
242.5457464671414
 30
0.0
 10
792.3192516465383
 20
242.6725259809986
 30
0.0
 10
791.9974797282159
 20
242.6725259809986
 30
0.0
 10
791.6757078098937
 20
242.6725259809986
 30
0.0
 10
791.4131915339176
 20
242.5457464671414
 30
0.0
 10
791.2440373455918
 20
242.3507540626762
 30
0.0
  0
HATCH
  5
35E
330
354
100
AcDbEntity
  8
Layer 1
 62
     7
100
AcDbHatch
 10
0.0
 20
0.0
 30
0.0
210
0.0
220
0.0
230
1.0
  2
SOLID
 70
     1
 71
     0
 91
        2
 92
        1
 93
        1
 72
     4
 94
        3
 73
     0
 74
     1
 95
       29
 96
       25
 40
0.0
 40
0.0
 40
0.0
 40
0.0
 40
1.0
 40
1.0
 40
1.0
 40
2.0
 40
2.0
 40
2.0
 40
3.0
 40
3.0
 40
3.0
 40
4.0
 40
4.0
 40
4.0
 40
5.0
 40
5.0
 40
5.0
 40
6.0
 40
6.0
 40
6.0
 40
7.0
 40
7.0
 40
7.0
 40
8.0
 40
8.0
 40
8.0
 40
8.0
 10
793.6149520585408
 20
243.0876599869711
 10
794.2161212207168
 20
242.4947590539597
 10
794.2243894498814
 20
241.8088405428464
 10
794.2243894498814
 20
240.6574896316759
 10
794.2243894498814
 20
239.5057942109569
 10
794.2161212207168
 20
238.8198756998437
 10
793.6149520585408
 20
238.2273192763807
 10
793.1998180525682
 20
237.8207980091212
 10
792.6920109780423
 20
237.5923881784491
 10
791.9974797282159
 20
237.5923881784491
 10
791.3032929879381
 20
237.5923881784491
 10
790.7951414038638
 20
237.8207980091212
 10
790.3803519074397
 20
238.2273192763807
 10
789.7791827452636
 20
238.8284884385568
 10
789.7705700065504
 20
239.5057942109569
 10
789.7705700065504
 20
240.6574896316759
 10
789.7705700065504
 20
241.8088405428464
 10
789.7791827452636
 20
242.4864908247951
 10
790.3803519074397
 20
243.0876599869711
 10
790.7951414038638
 20
243.4938367446821
 10
791.3032929879381
 20
243.7225910849027
 10
791.9974797282159
 20
243.7225910849027
 10
792.6920109780423
 20
243.7225910849027
 10
793.1998180525682
 20
243.4938367446821
 10
793.6149520585408
 20
243.0876599869711
 97
        0
 92
        1
 93
        1
 72
     4
 94
        3
 73
     0
 74
     1
 95
       29
 96
       25
 40
0.0
 40
0.0
 40
0.0
 40
0.0
 40
1.0
 40
1.0
 40
1.0
 40
2.0
 40
2.0
 40
2.0
 40
3.0
 40
3.0
 40
3.0
 40
4.0
 40
4.0
 40
4.0
 40
5.0
 40
5.0
 40
5.0
 40
6.0
 40
6.0
 40
6.0
 40
7.0
 40
7.0
 40
7.0
 40
8.0
 40
8.0
 40
8.0
 40
8.0
 10
791.2440373455918
 20
242.3507540626762
 10
791.0152830053712
 20
242.0968505254133
 10
790.9474146243118
 20
241.8088405428464
 10
790.9474146243118
 20
240.6574896316759
 10
790.9474146243118
 20
239.5057942109569
 10
791.0152830053712
 20
239.2263969671031
 10
791.2440373455918
 20
238.9724934298402
 10
791.4131915339176
 20
238.7775010253751
 10
791.6757078098937
 20
238.6421087728048
 10
791.9974797282159
 20
238.6421087728048
 10
792.3192516465383
 20
238.6421087728048
 10
792.5817679225144
 20
238.7775010253751
 10
792.7512666203886
 20
238.9724934298402
 10
792.9796764510606
 20
239.2263969671031
 10
793.0475448321201
 20
239.5057942109569
 10
793.0475448321201
 20
240.6574896316759
 10
793.0475448321201
 20
241.8088405428464
 10
792.9796764510606
 20
242.0968505254133
 10
792.7512666203886
 20
242.3507540626762
 10
792.5817679225144
 20
242.5457464671414
 10
792.3192516465383
 20
242.6725259809986
 10
791.9974797282159
 20
242.6725259809986
 10
791.6757078098937
 20
242.6725259809986
 10
791.4131915339176
 20
242.5457464671414
 10
791.2440373455918
 20
242.3507540626762
 97
        0
 75
     2
 76
     1
 98
        0
  0
POLYLINE
  5
35F
330
354
100
AcDbEntity
  8
Layer 1
370
     0
100
AcDb2dPolyline
 66
     1
 10
0.0
 20
0.0
 30
0.0
  0
VERTEX
  5
360
330
35F
100
AcDbEntity
  8
Layer 1
370
     0
100
AcDbVertex
100
AcDb2dVertex
 10
800.5151338059477
 20
237.6430310820823
 30
0.0
  0
VERTEX
  5
361
330
35F
100
AcDbEntity
  8
Layer 1
370
     0
100
AcDbVertex
100
AcDb2dVertex
 10
799.5246688539384
 20
237.6430310820823
 30
0.0
  0
VERTEX
  5
362
330
35F
100
AcDbEntity
  8
Layer 1
370
     0
100
AcDbVertex
100
AcDb2dVertex
 10
798.4153481076879
 20
241.2924207296075
 30
0.0
  0
VERTEX
  5
363
330
35F
100
AcDbEntity
  8
Layer 1
370
     0
100
AcDbVertex
100
AcDb2dVertex
 10
797.3146401001505
 20
237.6430310820823
 30
0.0
  0
VERTEX
  5
364
330
35F
100
AcDbEntity
  8
Layer 1
370
     0
100
AcDbVertex
100
AcDb2dVertex
 10
796.3324433773058
 20
237.6430310820823
 30
0.0
  0
VERTEX
  5
365
330
35F
100
AcDbEntity
  8
Layer 1
370
     0
100
AcDbVertex
100
AcDb2dVertex
 10
794.714971046981
 20
243.6719481812695
 30
0.0
  0
VERTEX
  5
366
330
35F
100
AcDbEntity
  8
Layer 1
370
     0
100
AcDbVertex
100
AcDb2dVertex
 10
795.942803077924
 20
243.6719481812695
 30
0.0
  0
VERTEX
  5
367
330
35F
100
AcDbEntity
  8
Layer 1
370
     0
100
AcDbVertex
100
AcDb2dVertex
 10
796.8743568971356
 20
239.8785535424609
 30
0.0
  0
VERTEX
  5
368
330
35F
100
AcDbEntity
  8
Layer 1
370
     0
100
AcDbVertex
100
AcDb2dVertex
 10
797.983677643386
 20
243.6719481812695
 30
0.0
  0
VERTEX
  5
369
330
35F
100
AcDbEntity
  8
Layer 1
370
     0
100
AcDbVertex
100
AcDb2dVertex
 10
798.8556313107028
 20
243.6719481812695
 30
0.0
  0
VERTEX
  5
36A
330
35F
100
AcDbEntity
  8
Layer 1
370
     0
100
AcDbVertex
100
AcDb2dVertex
 10
799.9649520569533
 20
239.8785535424609
 30
0.0
  0
VERTEX
  5
36B
330
35F
100
AcDbEntity
  8
Layer 1
370
     0
100
AcDbVertex
100
AcDb2dVertex
 10
800.8961613666163
 20
243.6719481812695
 30
0.0
  0
VERTEX
  5
36C
330
35F
100
AcDbEntity
  8
Layer 1
370
     0
100
AcDbVertex
100
AcDb2dVertex
 10
802.1239933975593
 20
243.6719481812695
 30
0.0
  0
VERTEX
  5
36D
330
35F
100
AcDbEntity
  8
Layer 1
370
     0
100
AcDbVertex
100
AcDb2dVertex
 10
800.5151338059477
 20
237.6430310820823
 30
0.0
  0
SEQEND
  5
36E
330
35F
100
AcDbEntity
  8
Layer 1
370
     0
  0
HATCH
  5
36F
330
354
100
AcDbEntity
  8
Layer 1
 62
     7
100
AcDbHatch
 10
0.0
 20
0.0
 30
0.0
210
0.0
220
0.0
230
1.0
  2
SOLID
 70
     1
 71
     0
 91
        1
 92
        1
 93
       13
 72
     1
 10
800.5151338059477
 20
237.6430310820823
 11
799.5246688539384
 21
237.6430310820823
 72
     1
 10
799.5246688539384
 20
237.6430310820823
 11
798.4153481076879
 21
241.2924207296075
 72
     1
 10
798.4153481076879
 20
241.2924207296075
 11
797.3146401001505
 21
237.6430310820823
 72
     1
 10
797.3146401001505
 20
237.6430310820823
 11
796.3324433773058
 21
237.6430310820823
 72
     1
 10
796.3324433773058
 20
237.6430310820823
 11
794.714971046981
 21
243.6719481812695
 72
     1
 10
794.714971046981
 20
243.6719481812695
 11
795.942803077924
 21
243.6719481812695
 72
     1
 10
795.942803077924
 20
243.6719481812695
 11
796.8743568971356
 21
239.8785535424609
 72
     1
 10
796.8743568971356
 20
239.8785535424609
 11
797.983677643386
 21
243.6719481812695
 72
     1
 10
797.983677643386
 20
243.6719481812695
 11
798.8556313107028
 21
243.6719481812695
 72
     1
 10
798.8556313107028
 20
243.6719481812695
 11
799.9649520569533
 21
239.8785535424609
 72
     1
 10
799.9649520569533
 20
239.8785535424609
 11
800.8961613666163
 21
243.6719481812695
 72
     1
 10
800.8961613666163
 20
243.6719481812695
 11
802.1239933975593
 21
243.6719481812695
 72
     1
 10
802.1239933975593
 20
243.6719481812695
 11
800.5151338059477
 21
237.6430310820823
 97
        0
 75
     2
 76
     1
 98
        0
  0
POLYLINE
  5
370
330
354
100
AcDbEntity
  8
Layer 1
370
     0
100
AcDb2dPolyline
 66
     1
 10
0.0
 20
0.0
 30
0.0
  0
VERTEX
  5
371
330
370
100
AcDbEntity
  8
Layer 1
370
     0
100
AcDbVertex
100
AcDb2dVertex
 10
808.3386011434015
 20
237.6430310820823
 30
0.0
  0
VERTEX
  5
372
330
370
100
AcDbEntity
  8
Layer 1
370
     0
100
AcDbVertex
100
AcDb2dVertex
 10
807.1617565256402
 20
237.6430310820823
 30
0.0
  0
VERTEX
  5
373
330
370
100
AcDbEntity
  8
Layer 1
370
     0
100
AcDbVertex
100
AcDb2dVertex
 10
807.1617565256402
 20
241.148415738324
 30
0.0
  0
VERTEX
  5
374
330
370
100
AcDbEntity
  8
Layer 1
370
     0
100
AcDbVertex
100
AcDb2dVertex
 10
806.0100611049211
 20
239.0062553655957
 30
0.0
  0
VERTEX
  5
375
330
370
100
AcDbEntity
  8
Layer 1
370
     0
100
AcDbVertex
100
AcDb2dVertex
 10
805.2142440478284
 20
239.0062553655957
 30
0.0
  0
VERTEX
  5
376
330
370
100
AcDbEntity
  8
Layer 1
370
     0
100
AcDbVertex
100
AcDb2dVertex
 10
804.0539358883963
 20
241.148415738324
 30
0.0
  0
VERTEX
  5
377
330
370
100
AcDbEntity
  8
Layer 1
370
     0
100
AcDbVertex
100
AcDb2dVertex
 10
804.0539358883963
 20
237.6430310820823
 30
0.0
  0
VERTEX
  5
378
330
370
100
AcDbEntity
  8
Layer 1
370
     0
100
AcDbVertex
100
AcDb2dVertex
 10
802.8770912706349
 20
237.6430310820823
 30
0.0
  0
VERTEX
  5
379
330
370
100
AcDbEntity
  8
Layer 1
370
     0
100
AcDbVertex
100
AcDb2dVertex
 10
802.8770912706349
 20
243.6719481812695
 30
0.0
  0
VERTEX
  5
37A
330
370
100
AcDbEntity
  8
Layer 1
370
     0
100
AcDbVertex
100
AcDb2dVertex
 10
804.0370549205186
 20
243.6719481812695
 30
0.0
  0
VERTEX
  5
37B
330
370
100
AcDbEntity
  8
Layer 1
370
     0
100
AcDbVertex
100
AcDb2dVertex
 10
805.6121525763748
 20
240.5472465761479
 30
0.0
  0
VERTEX
  5
37C
330
370
100
AcDbEntity
  8
Layer 1
370
     0
100
AcDbVertex
100
AcDb2dVertex
 10
807.1786374935178
 20
243.6719481812695
 30
0.0
  0
VERTEX
  5
37D
330
370
100
AcDbEntity
  8
Layer 1
370
     0
100
AcDbVertex
100
AcDb2dVertex
 10
808.3386011434015
 20
243.6719481812695
 30
0.0
  0
VERTEX
  5
37E
330
370
100
AcDbEntity
  8
Layer 1
370
     0
100
AcDbVertex
100
AcDb2dVertex
 10
808.3386011434015
 20
237.6430310820823
 30
0.0
  0
SEQEND
  5
37F
330
370
100
AcDbEntity
  8
Layer 1
370
     0
  0
HATCH
  5
380
330
354
100
AcDbEntity
  8
Layer 1
 62
     7
100
AcDbHatch
 10
0.0
 20
0.0
 30
0.0
210
0.0
220
0.0
230
1.0
  2
SOLID
 70
     1
 71
     0
 91
        1
 92
        1
 93
       13
 72
     1
 10
808.3386011434015
 20
237.6430310820823
 11
807.1617565256402
 21
237.6430310820823
 72
     1
 10
807.1617565256402
 20
237.6430310820823
 11
807.1617565256402
 21
241.148415738324
 72
     1
 10
807.1617565256402
 20
241.148415738324
 11
806.0100611049211
 21
239.0062553655957
 72
     1
 10
806.0100611049211
 20
239.0062553655957
 11
805.2142440478284
 21
239.0062553655957
 72
     1
 10
805.2142440478284
 20
239.0062553655957
 11
804.0539358883963
 21
241.148415738324
 72
     1
 10
804.0539358883963
 20
241.148415738324
 11
804.0539358883963
 21
237.6430310820823
 72
     1
 10
804.0539358883963
 20
237.6430310820823
 11
802.8770912706349
 21
237.6430310820823
 72
     1
 10
802.8770912706349
 20
237.6430310820823
 11
802.8770912706349
 21
243.6719481812695
 72
     1
 10
802.8770912706349
 20
243.6719481812695
 11
804.0370549205186
 21
243.6719481812695
 72
     1
 10
804.0370549205186
 20
243.6719481812695
 11
805.6121525763748
 21
240.5472465761479
 72
     1
 10
805.6121525763748
 20
240.5472465761479
 11
807.1786374935178
 21
243.6719481812695
 72
     1
 10
807.1786374935178
 20
243.6719481812695
 11
808.3386011434015
 21
243.6719481812695
 72
     1
 10
808.3386011434015
 20
243.6719481812695
 11
808.3386011434015
 21
237.6430310820823
 97
        0
 75
     2
 76
     1
 98
        0
  0
POLYLINE
  5
381
330
354
100
AcDbEntity
  8
Layer 1
370
     0
100
AcDb2dPolyline
 66
     1
 10
0.0
 20
0.0
 30
0.0
  0
VERTEX
  5
382
330
381
100
AcDbEntity
  8
Layer 1
370
     0
100
AcDbVertex
100
AcDb2dVertex
 10
814.4005911592471
 20
237.6430310820823
 30
0.0
  0
VERTEX
  5
383
330
381
100
AcDbEntity
  8
Layer 1
370
     0
100
AcDbVertex
100
AcDb2dVertex
 10
813.1644908991394
 20
237.6430310820823
 30
0.0
  0
VERTEX
  5
384
330
381
100
AcDbEntity
  8
Layer 1
370
     0
100
AcDbVertex
100
AcDb2dVertex
 10
812.8086125355131
 20
238.7099771538642
 30
0.0
  0
VERTEX
  5
385
330
381
100
AcDbEntity
  8
Layer 1
370
     0
100
AcDbVertex
100
AcDb2dVertex
 10
810.675064901498
 20
238.7099771538642
 30
0.0
  0
VERTEX
  5
386
330
381
100
AcDbEntity
  8
Layer 1
370
     0
100
AcDbVertex
100
AcDb2dVertex
 10
810.3109183087071
 20
237.6430310820823
 30
0.0
  0
VERTEX
  5
387
330
381
100
AcDbEntity
  8
Layer 1
370
     0
100
AcDbVertex
100
AcDb2dVertex
 10
809.0744735390508
 20
237.6430310820823
 30
0.0
  0
VERTEX
  5
388
330
381
100
AcDbEntity
  8
Layer 1
370
     0
100
AcDbVertex
100
AcDb2dVertex
 10
811.276234063674
 20
243.6719481812695
 30
0.0
  0
VERTEX
  5
389
330
381
100
AcDbEntity
  8
Layer 1
370
     0
100
AcDbVertex
100
AcDb2dVertex
 10
812.1991751441725
 20
243.6719481812695
 30
0.0
  0
VERTEX
  5
38A
330
381
100
AcDbEntity
  8
Layer 1
370
     0
100
AcDbVertex
100
AcDb2dVertex
 10
814.4005911592471
 20
237.6430310820823
 30
0.0
  0
SEQEND
  5
38B
330
381
100
AcDbEntity
  8
Layer 1
370
     0
  0
POLYLINE
  5
38C
330
354
100
AcDbEntity
  8
Layer 1
370
     0
100
AcDb2dPolyline
 66
     1
 10
0.0
 20
0.0
 30
0.0
  0
VERTEX
  5
38D
330
38C
100
AcDbEntity
  8
Layer 1
370
     0
100
AcDbVertex
100
AcDb2dVertex
 10
810.9968368198203
 20
239.7004421058735
 30
0.0
  0
VERTEX
  5
38E
330
38C
100
AcDbEntity
  8
Layer 1
370
     0
100
AcDbVertex
100
AcDb2dVertex
 10
812.4785723880262
 20
239.7004421058735
 30
0.0
  0
VERTEX
  5
38F
330
38C
100
AcDbEntity
  8
Layer 1
370
     0
100
AcDbVertex
100
AcDb2dVertex
 10
811.7416664637312
 20
241.885321662619
 30
0.0
  0
VERTEX
  5
390
330
38C
100
AcDbEntity
  8
Layer 1
370
     0
100
AcDbVertex
100
AcDb2dVertex
 10
810.9968368198203
 20
239.7004421058735
 30
0.0
  0
SEQEND
  5
391
330
38C
100
AcDbEntity
  8
Layer 1
370
     0
  0
HATCH
  5
392
330
354
100
AcDbEntity
  8
Layer 1
 62
     7
100
AcDbHatch
 10
0.0
 20
0.0
 30
0.0
210
0.0
220
0.0
230
1.0
  2
SOLID
 70
     1
 71
     0
 91
        2
 92
        1
 93
        8
 72
     1
 10
814.4005911592471
 20
237.6430310820823
 11
813.1644908991394
 21
237.6430310820823
 72
     1
 10
813.1644908991394
 20
237.6430310820823
 11
812.8086125355131
 21
238.7099771538642
 72
     1
 10
812.8086125355131
 20
238.7099771538642
 11
810.675064901498
 21
238.7099771538642
 72
     1
 10
810.675064901498
 20
238.7099771538642
 11
810.3109183087071
 21
237.6430310820823
 72
     1
 10
810.3109183087071
 20
237.6430310820823
 11
809.0744735390508
 21
237.6430310820823
 72
     1
 10
809.0744735390508
 20
237.6430310820823
 11
811.276234063674
 21
243.6719481812695
 72
     1
 10
811.276234063674
 20
243.6719481812695
 11
812.1991751441725
 21
243.6719481812695
 72
     1
 10
812.1991751441725
 20
243.6719481812695
 11
814.4005911592471
 21
237.6430310820823
 97
        0
 92
        1
 93
        3
 72
     1
 10
810.9968368198203
 20
239.7004421058735
 11
812.4785723880262
 21
239.7004421058735
 72
     1
 10
812.4785723880262
 20
239.7004421058735
 11
811.7416664637312
 21
241.885321662619
 72
     1
 10
811.7416664637312
 20
241.885321662619
 11
810.9968368198203
 21
239.7004421058735
 97
        0
 75
     2
 76
     1
 98
        0
  0
SPLINE
  5
393
330
354
100
AcDbEntity
  8
Layer 1
370
     0
100
AcDbSpline
210
0.0
220
0.0
230
1.0
 70
    11
 71
     3
 72
    47
 73
    43
 74
     0
 42
0.0000000001
 43
0.0000000001
 12
1.0
 22
0.0
 32
0.0
 13
1.0
 23
0.0
 33
0.0
 40
0.0
 40
0.0
 40
0.0
 40
0.0
 40
1.0
 40
1.0
 40
1.0
 40
2.0
 40
2.0
 40
2.0
 40
3.0
 40
3.0
 40
3.0
 40
4.0
 40
4.0
 40
4.0
 40
5.0
 40
5.0
 40
5.0
 40
6.0
 40
6.0
 40
6.0
 40
7.0
 40
7.0
 40
7.0
 40
8.0
 40
8.0
 40
8.0
 40
9.0
 40
9.0
 40
9.0
 40
10.0
 40
10.0
 40
10.0
 40
11.0
 40
11.0
 40
11.0
 40
12.0
 40
12.0
 40
12.0
 40
13.0
 40
13.0
 40
13.0
 40
14.0
 40
14.0
 40
14.0
 40
14.0
 10
819.2857365573313
 20
241.8174532815595
 30
0.0
 10
819.2857365573313
 20
241.8174532815595
 30
0.0
 10
818.0920109716923
 20
241.8174532815595
 30
0.0
 10
818.0920109716923
 20
241.8174532815595
 30
0.0
 10
817.9731551774512
 20
242.3087238977562
 30
0.0
 10
817.659995997842
 20
242.6725259809986
 30
0.0
 10
817.0757078035437
 20
242.6725259809986
 30
0.0
 10
816.7539358852213
 20
242.6725259809986
 30
0.0
 10
816.4914196092452
 20
242.554014696306
 30
0.0
 10
816.3222654209195
 20
242.3593668013893
 30
0.0
 10
816.102123819412
 20
242.1054632641264
 30
0.0
 10
816.0256426996394
 20
241.8088405428464
 30
0.0
 10
816.0256426996394
 20
240.6574896316759
 30
0.0
 10
816.0256426996394
 20
239.5057942109569
 30
0.0
 10
816.102123819412
 20
239.2095159992254
 30
0.0
 10
816.3222654209195
 20
238.9556124619625
 30
0.0
 10
816.4914196092452
 20
238.7606200574974
 30
0.0
 10
816.7539358852213
 20
238.6421087728048
 30
0.0
 10
817.0757078035437
 20
238.6421087728048
 30
0.0
 10
817.659995997842
 20
238.6421087728048
 30
0.0
 10
817.9731551774512
 20
239.0062553655957
 30
0.0
 10
818.0920109716923
 20
239.4975259817923
 30
0.0
 10
818.0920109716923
 20
239.4975259817923
 30
0.0
 10
819.2857365573313
 20
239.4975259817923
 30
0.0
 10
819.2857365573313
 20
239.4975259817923
 30
0.0
 10
819.074207694537
 20
238.2355875055453
 30
0.0
 10
818.2019095176718
 20
237.5923881784491
 30
0.0
 10
817.0757078035437
 20
237.5923881784491
 30
0.0
 10
816.3815210632657
 20
237.5923881784491
 30
0.0
 10
815.8733694791914
 20
237.8207980091212
 30
0.0
 10
815.4585799827673
 20
238.2273192763807
 30
0.0
 10
814.8574108205912
 20
238.8284884385568
 30
0.0
 10
814.8487980818782
 20
239.5057942109569
 30
0.0
 10
814.8487980818782
 20
240.6574896316759
 30
0.0
 10
814.8487980818782
 20
241.8088405428464
 30
0.0
 10
814.8574108205912
 20
242.4864908247951
 30
0.0
 10
815.4585799827673
 20
243.0876599869711
 30
0.0
 10
815.8733694791914
 20
243.4938367446821
 30
0.0
 10
816.3815210632657
 20
243.7225910849027
 30
0.0
 10
817.0757078035437
 20
243.7225910849027
 30
0.0
 10
818.2019095176718
 20
243.7225910849027
 30
0.0
 10
819.074207694537
 20
243.079047248258
 30
0.0
 10
819.2857365573313
 20
241.8174532815595
 30
0.0
  0
HATCH
  5
394
330
354
100
AcDbEntity
  8
Layer 1
 62
     7
100
AcDbHatch
 10
0.0
 20
0.0
 30
0.0
210
0.0
220
0.0
230
1.0
  2
SOLID
 70
     1
 71
     0
 91
        1
 92
        1
 93
        1
 72
     4
 94
        3
 73
     0
 74
     1
 95
       47
 96
       43
 40
0.0
 40
0.0
 40
0.0
 40
0.0
 40
1.0
 40
1.0
 40
1.0
 40
2.0
 40
2.0
 40
2.0
 40
3.0
 40
3.0
 40
3.0
 40
4.0
 40
4.0
 40
4.0
 40
5.0
 40
5.0
 40
5.0
 40
6.0
 40
6.0
 40
6.0
 40
7.0
 40
7.0
 40
7.0
 40
8.0
 40
8.0
 40
8.0
 40
9.0
 40
9.0
 40
9.0
 40
10.0
 40
10.0
 40
10.0
 40
11.0
 40
11.0
 40
11.0
 40
12.0
 40
12.0
 40
12.0
 40
13.0
 40
13.0
 40
13.0
 40
14.0
 40
14.0
 40
14.0
 40
14.0
 10
819.2857365573313
 20
241.8174532815595
 10
819.2857365573313
 20
241.8174532815595
 10
818.0920109716923
 20
241.8174532815595
 10
818.0920109716923
 20
241.8174532815595
 10
817.9731551774512
 20
242.3087238977562
 10
817.659995997842
 20
242.6725259809986
 10
817.0757078035437
 20
242.6725259809986
 10
816.7539358852213
 20
242.6725259809986
 10
816.4914196092452
 20
242.554014696306
 10
816.3222654209195
 20
242.3593668013893
 10
816.102123819412
 20
242.1054632641264
 10
816.0256426996394
 20
241.8088405428464
 10
816.0256426996394
 20
240.6574896316759
 10
816.0256426996394
 20
239.5057942109569
 10
816.102123819412
 20
239.2095159992254
 10
816.3222654209195
 20
238.9556124619625
 10
816.4914196092452
 20
238.7606200574974
 10
816.7539358852213
 20
238.6421087728048
 10
817.0757078035437
 20
238.6421087728048
 10
817.659995997842
 20
238.6421087728048
 10
817.9731551774512
 20
239.0062553655957
 10
818.0920109716923
 20
239.4975259817923
 10
818.0920109716923
 20
239.4975259817923
 10
819.2857365573313
 20
239.4975259817923
 10
819.2857365573313
 20
239.4975259817923
 10
819.074207694537
 20
238.2355875055453
 10
818.2019095176718
 20
237.5923881784491
 10
817.0757078035437
 20
237.5923881784491
 10
816.3815210632657
 20
237.5923881784491
 10
815.8733694791914
 20
237.8207980091212
 10
815.4585799827673
 20
238.2273192763807
 10
814.8574108205912
 20
238.8284884385568
 10
814.8487980818782
 20
239.5057942109569
 10
814.8487980818782
 20
240.6574896316759
 10
814.8487980818782
 20
241.8088405428464
 10
814.8574108205912
 20
242.4864908247951
 10
815.4585799827673
 20
243.0876599869711
 10
815.8733694791914
 20
243.4938367446821
 10
816.3815210632657
 20
243.7225910849027
 10
817.0757078035437
 20
243.7225910849027
 10
818.2019095176718
 20
243.7225910849027
 10
819.074207694537
 20
243.079047248258
 10
819.2857365573313
 20
241.8174532815595
 97
        0
 75
     2
 76
     1
 98
        0
  0
SPLINE
  5
395
330
354
100
AcDbEntity
  8
Layer 1
370
     0
100
AcDbSpline
210
0.0
220
0.0
230
1.0
 70
    11
 71
     3
 72
    17
 73
    13
 74
     0
 42
0.0000000001
 43
0.0000000001
 12
1.0
 22
0.0
 32
0.0
 13
1.0
 23
0.0
 33
0.0
 40
0.0
 40
0.0
 40
0.0
 40
0.0
 40
1.0
 40
1.0
 40
1.0
 40
2.0
 40
2.0
 40
2.0
 40
3.0
 40
3.0
 40
3.0
 40
4.0
 40
4.0
 40
4.0
 40
4.0
 10
819.8896617958957
 20
242.2198404342367
 30
0.0
 10
819.8896617958957
 20
243.2068602907608
 30
0.0
 10
820.6896129675707
 20
244.0068114624358
 30
0.0
 10
821.6766328240948
 20
244.0068114624358
 30
0.0
 10
822.6639971901674
 20
244.0068114624358
 30
0.0
 10
823.4636038522939
 20
243.2068602907608
 30
0.0
 10
823.4636038522939
 20
242.2198404342367
 30
0.0
 10
823.4636038522939
 20
241.2324760681641
 30
0.0
 10
822.6639971901674
 20
240.4328694060376
 30
0.0
 10
821.6766328240948
 20
240.4328694060376
 30
0.0
 10
820.6896129675707
 20
240.4328694060376
 30
0.0
 10
819.8896617958957
 20
241.2324760681641
 30
0.0
 10
819.8896617958957
 20
242.2198404342367
 30
0.0
  0
SPLINE
  5
396
330
354
100
AcDbEntity
  8
Layer 1
370
     0
100
AcDbSpline
210
0.0
220
0.0
230
1.0
 70
    11
 71
     3
 72
    17
 73
    13
 74
     0
 42
0.0000000001
 43
0.0000000001
 12
1.0
 22
0.0
 32
0.0
 13
1.0
 23
0.0
 33
0.0
 40
0.0
 40
0.0
 40
0.0
 40
0.0
 40
1.0
 40
1.0
 40
1.0
 40
2.0
 40
2.0
 40
2.0
 40
3.0
 40
3.0
 40
3.0
 40
4.0
 40
4.0
 40
4.0
 40
4.0
 10
823.0391680885111
 20
242.2198404342367
 30
0.0
 10
823.0391680885111
 20
243.0146239626839
 30
0.0
 10
822.4466116650481
 20
243.6068358765983
 30
0.0
 10
821.6766328240948
 20
243.6068358765983
 30
0.0
 10
820.9066539831414
 20
243.6068358765983
 30
0.0
 10
820.314442069227
 20
243.0146239626839
 30
0.0
 10
820.314442069227
 20
242.2198404342367
 30
0.0
 10
820.314442069227
 20
241.4250569057896
 30
0.0
 10
820.9066539831414
 20
240.8328449918751
 30
0.0
 10
821.6766328240948
 20
240.8328449918751
 30
0.0
 10
822.4466116650481
 20
240.8328449918751
 30
0.0
 10
823.0391680885111
 20
241.4250569057896
 30
0.0
 10
823.0391680885111
 20
242.2198404342367
 30
0.0
  0
SPLINE
  5
397
330
354
100
AcDbEntity
  8
Layer 1
370
     0
100
AcDbSpline
210
0.0
220
0.0
230
1.0
 70
    11
 71
     3
 72
    35
 73
    31
 74
     0
 42
0.0000000001
 43
0.0000000001
 12
1.0
 22
0.0
 32
0.0
 13
1.0
 23
0.0
 33
0.0
 40
0.0
 40
0.0
 40
0.0
 40
0.0
 40
1.0
 40
1.0
 40
1.0
 40
2.0
 40
2.0
 40
2.0
 40
3.0
 40
3.0
 40
3.0
 40
4.0
 40
4.0
 40
4.0
 40
5.0
 40
5.0
 40
5.0
 40
6.0
 40
6.0
 40
6.0
 40
7.0
 40
7.0
 40
7.0
 40
8.0
 40
8.0
 40
8.0
 40
9.0
 40
9.0
 40
9.0
 40
10.0
 40
10.0
 40
10.0
 40
10.0
 10
821.025165267834
 20
243.1724093359083
 30
0.0
 10
821.025165267834
 20
243.1724093359083
 30
0.0
 10
821.7999672424667
 20
243.1724093359083
 30
0.0
 10
821.7999672424667
 20
243.1724093359083
 30
0.0
 10
822.1851289177176
 20
243.1724093359083
 30
0.0
 10
822.4317977544615
 20
242.8909450347634
 30
0.0
 10
822.4317977544615
 20
242.575029778766
 30
0.0
 10
822.4317977544615
 20
242.3135470314355
 30
0.0
 10
822.2640216043299
 20
242.1457708813038
 30
0.0
 10
822.0814315436116
 20
242.071701328371
 30
0.0
 10
822.0814315436116
 20
242.071701328371
 30
0.0
 10
822.4814071294492
 20
241.2720946662445
 30
0.0
 10
822.4814071294492
 20
241.2720946662445
 30
0.0
 10
822.4814071294492
 20
241.2720946662445
 30
0.0
 10
821.9973712137715
 20
241.2720946662445
 30
0.0
 10
821.9973712137715
 20
241.2720946662445
 30
0.0
 10
821.9973712137715
 20
241.2720946662445
 30
0.0
 10
821.6521726461494
 20
242.0076225523453
 30
0.0
 10
821.6521726461494
 20
242.0076225523453
 30
0.0
 10
821.6521726461494
 20
242.0076225523453
 30
0.0
 10
821.4496010316168
 20
242.0076225523453
 30
0.0
 10
821.4496010316168
 20
242.0076225523453
 30
0.0
 10
821.4496010316168
 20
242.0076225523453
 30
0.0
 10
821.4496010316168
 20
241.2720946662445
 30
0.0
 10
821.4496010316168
 20
241.2720946662445
 30
0.0
 10
821.4496010316168
 20
241.2720946662445
 30
0.0
 10
821.025165267834
 20
241.2720946662445
 30
0.0
 10
821.025165267834
 20
241.2720946662445
 30
0.0
 10
821.025165267834
 20
241.2720946662445
 30
0.0
 10
821.025165267834
 20
243.1724093359083
 30
0.0
 10
821.025165267834
 20
243.1724093359083
 30
0.0
  0
SPLINE
  5
398
330
354
100
AcDbEntity
  8
Layer 1
370
     0
100
AcDbSpline
210
0.0
220
0.0
230
1.0
 70
    11
 71
     3
 72
    20
 73
    16
 74
     0
 42
0.0000000001
 43
0.0000000001
 12
1.0
 22
0.0
 32
0.0
 13
1.0
 23
0.0
 33
0.0
 40
0.0
 40
0.0
 40
0.0
 40
0.0
 40
1.0
 40
1.0
 40
1.0
 40
2.0
 40
2.0
 40
2.0
 40
3.0
 40
3.0
 40
3.0
 40
4.0
 40
4.0
 40
4.0
 40
5.0
 40
5.0
 40
5.0
 40
5.0
 10
821.7458792433483
 20
242.3283609420221
 30
0.0
 10
821.9036646165728
 20
242.3283609420221
 30
0.0
 10
822.0073619906788
 20
242.4420490930353
 30
0.0
 10
822.0073619906788
 20
242.575029778766
 30
0.0
 10
822.0073619906788
 20
242.7083549740451
 30
0.0
 10
821.9036646165728
 20
242.8220431250584
 30
0.0
 10
821.7458792433483
 20
242.8220431250584
 30
0.0
 10
821.7458792433483
 20
242.8220431250584
 30
0.0
 10
821.4496010316168
 20
242.8220431250584
 30
0.0
 10
821.4496010316168
 20
242.8220431250584
 30
0.0
 10
821.4496010316168
 20
242.8220431250584
 30
0.0
 10
821.4496010316168
 20
242.3283609420221
 30
0.0
 10
821.4496010316168
 20
242.3283609420221
 30
0.0
 10
821.4496010316168
 20
242.3283609420221
 30
0.0
 10
821.7458792433483
 20
242.3283609420221
 30
0.0
 10
821.7458792433483
 20
242.3283609420221
 30
0.0
  0
HATCH
  5
399
330
354
100
AcDbEntity
  8
Layer 1
 62
     7
100
AcDbHatch
 10
0.0
 20
0.0
 30
0.0
210
0.0
220
0.0
230
1.0
  2
SOLID
 70
     1
 71
     0
 91
        4
 92
        1
 93
        1
 72
     4
 94
        3
 73
     0
 74
     1
 95
       17
 96
       13
 40
0.0
 40
0.0
 40
0.0
 40
0.0
 40
1.0
 40
1.0
 40
1.0
 40
2.0
 40
2.0
 40
2.0
 40
3.0
 40
3.0
 40
3.0
 40
4.0
 40
4.0
 40
4.0
 40
4.0
 10
819.8896617958957
 20
242.2198404342367
 10
819.8896617958957
 20
243.2068602907608
 10
820.6896129675707
 20
244.0068114624358
 10
821.6766328240948
 20
244.0068114624358
 10
822.6639971901674
 20
244.0068114624358
 10
823.4636038522939
 20
243.2068602907608
 10
823.4636038522939
 20
242.2198404342367
 10
823.4636038522939
 20
241.2324760681641
 10
822.6639971901674
 20
240.4328694060376
 10
821.6766328240948
 20
240.4328694060376
 10
820.6896129675707
 20
240.4328694060376
 10
819.8896617958957
 20
241.2324760681641
 10
819.8896617958957
 20
242.2198404342367
 97
        0
 92
        1
 93
        1
 72
     4
 94
        3
 73
     0
 74
     1
 95
       17
 96
       13
 40
0.0
 40
0.0
 40
0.0
 40
0.0
 40
1.0
 40
1.0
 40
1.0
 40
2.0
 40
2.0
 40
2.0
 40
3.0
 40
3.0
 40
3.0
 40
4.0
 40
4.0
 40
4.0
 40
4.0
 10
823.0391680885111
 20
242.2198404342367
 10
823.0391680885111
 20
243.0146239626839
 10
822.4466116650481
 20
243.6068358765983
 10
821.6766328240948
 20
243.6068358765983
 10
820.9066539831414
 20
243.6068358765983
 10
820.314442069227
 20
243.0146239626839
 10
820.314442069227
 20
242.2198404342367
 10
820.314442069227
 20
241.4250569057896
 10
820.9066539831414
 20
240.8328449918751
 10
821.6766328240948
 20
240.8328449918751
 10
822.4466116650481
 20
240.8328449918751
 10
823.0391680885111
 20
241.4250569057896
 10
823.0391680885111
 20
242.2198404342367
 97
        0
 92
        1
 93
        1
 72
     4
 94
        3
 73
     0
 74
     1
 95
       35
 96
       31
 40
0.0
 40
0.0
 40
0.0
 40
0.0
 40
1.0
 40
1.0
 40
1.0
 40
2.0
 40
2.0
 40
2.0
 40
3.0
 40
3.0
 40
3.0
 40
4.0
 40
4.0
 40
4.0
 40
5.0
 40
5.0
 40
5.0
 40
6.0
 40
6.0
 40
6.0
 40
7.0
 40
7.0
 40
7.0
 40
8.0
 40
8.0
 40
8.0
 40
9.0
 40
9.0
 40
9.0
 40
10.0
 40
10.0
 40
10.0
 40
10.0
 10
821.025165267834
 20
243.1724093359083
 10
821.025165267834
 20
243.1724093359083
 10
821.7999672424667
 20
243.1724093359083
 10
821.7999672424667
 20
243.1724093359083
 10
822.1851289177176
 20
243.1724093359083
 10
822.4317977544615
 20
242.8909450347634
 10
822.4317977544615
 20
242.575029778766
 10
822.4317977544615
 20
242.3135470314355
 10
822.2640216043299
 20
242.1457708813038
 10
822.0814315436116
 20
242.071701328371
 10
822.0814315436116
 20
242.071701328371
 10
822.4814071294492
 20
241.2720946662445
 10
822.4814071294492
 20
241.2720946662445
 10
822.4814071294492
 20
241.2720946662445
 10
821.9973712137715
 20
241.2720946662445
 10
821.9973712137715
 20
241.2720946662445
 10
821.9973712137715
 20
241.2720946662445
 10
821.6521726461494
 20
242.0076225523453
 10
821.6521726461494
 20
242.0076225523453
 10
821.6521726461494
 20
242.0076225523453
 10
821.4496010316168
 20
242.0076225523453
 10
821.4496010316168
 20
242.0076225523453
 10
821.4496010316168
 20
242.0076225523453
 10
821.4496010316168
 20
241.2720946662445
 10
821.4496010316168
 20
241.2720946662445
 10
821.4496010316168
 20
241.2720946662445
 10
821.025165267834
 20
241.2720946662445
 10
821.025165267834
 20
241.2720946662445
 10
821.025165267834
 20
241.2720946662445
 10
821.025165267834
 20
243.1724093359083
 10
821.025165267834
 20
243.1724093359083
 97
        0
 92
        1
 93
        1
 72
     4
 94
        3
 73
     0
 74
     1
 95
       20
 96
       16
 40
0.0
 40
0.0
 40
0.0
 40
0.0
 40
1.0
 40
1.0
 40
1.0
 40
2.0
 40
2.0
 40
2.0
 40
3.0
 40
3.0
 40
3.0
 40
4.0
 40
4.0
 40
4.0
 40
5.0
 40
5.0
 40
5.0
 40
5.0
 10
821.7458792433483
 20
242.3283609420221
 10
821.9036646165728
 20
242.3283609420221
 10
822.0073619906788
 20
242.4420490930353
 10
822.0073619906788
 20
242.575029778766
 10
822.0073619906788
 20
242.7083549740451
 10
821.9036646165728
 20
242.8220431250584
 10
821.7458792433483
 20
242.8220431250584
 10
821.7458792433483
 20
242.8220431250584
 10
821.4496010316168
 20
242.8220431250584
 10
821.4496010316168
 20
242.8220431250584
 10
821.4496010316168
 20
242.8220431250584
 10
821.4496010316168
 20
242.3283609420221
 10
821.4496010316168
 20
242.3283609420221
 10
821.4496010316168
 20
242.3283609420221
 10
821.7458792433483
 20
242.3283609420221
 10
821.7458792433483
 20
242.3283609420221
 97
        0
 75
     2
 76
     1
 98
        0
  0
SPLINE
  5
39A
330
354
100
AcDbEntity
  8
Layer 1
370
     0
100
AcDbSpline
210
0.0
220
0.0
230
1.0
 70
    11
 71
     3
 72
    26
 73
    22
 74
     0
 42
0.0000000001
 43
0.0000000001
 12
1.0
 22
0.0
 32
0.0
 13
1.0
 23
0.0
 33
0.0
 40
0.0
 40
0.0
 40
0.0
 40
0.0
 40
1.0
 40
1.0
 40
1.0
 40
2.0
 40
2.0
 40
2.0
 40
3.0
 40
3.0
 40
3.0
 40
4.0
 40
4.0
 40
4.0
 40
5.0
 40
5.0
 40
5.0
 40
6.0
 40
6.0
 40
6.0
 40
7.0
 40
7.0
 40
7.0
 40
7.0
 10
829.0040064116727
 20
243.6719481812695
 30
0.0
 10
830.0540715155768
 20
243.6719481812695
 30
0.0
 10
830.7823647011586
 20
243.0707790190934
 30
0.0
 10
830.7823647011586
 20
242.0630885896578
 30
0.0
 10
830.7823647011586
 20
241.4278129821778
 30
0.0
 10
830.40133714049
 20
240.9282741368166
 30
0.0
 10
829.8931855564156
 20
240.7422389806131
 30
0.0
 10
830.4688610120008
 20
240.5303656082702
 30
0.0
 10
830.8753822792604
 20
240.030826762909
 30
0.0
 10
830.8753822792604
 20
239.3111463160403
 30
0.0
 10
830.8753822792604
 20
238.2187065376675
 30
0.0
 10
830.1474336032271
 20
237.6430310820823
 30
0.0
 10
829.0804875314452
 20
237.6430310820823
 30
0.0
 10
829.0804875314452
 20
237.6430310820823
 30
0.0
 10
826.7350665250871
 20
237.6430310820823
 30
0.0
 10
826.7350665250871
 20
237.6430310820823
 30
0.0
 10
826.7350665250871
 20
237.6430310820823
 30
0.0
 10
826.7350665250871
 20
243.6719481812695
 30
0.0
 10
826.7350665250871
 20
243.6719481812695
 30
0.0
 10
826.7350665250871
 20
243.6719481812695
 30
0.0
 10
829.0040064116727
 20
243.6719481812695
 30
0.0
 10
829.0040064116727
 20
243.6719481812695
 30
0.0
  0
SPLINE
  5
39B
330
354
100
AcDbEntity
  8
Layer 1
370
     0
100
AcDbSpline
210
0.0
220
0.0
230
1.0
 70
    11
 71
     3
 72
    20
 73
    16
 74
     0
 42
0.0000000001
 43
0.0000000001
 12
1.0
 22
0.0
 32
0.0
 13
1.0
 23
0.0
 33
0.0
 40
0.0
 40
0.0
 40
0.0
 40
0.0
 40
1.0
 40
1.0
 40
1.0
 40
2.0
 40
2.0
 40
2.0
 40
3.0
 40
3.0
 40
3.0
 40
4.0
 40
4.0
 40
4.0
 40
5.0
 40
5.0
 40
5.0
 40
5.0
 10
827.3782658521833
 20
243.0959282161357
 30
0.0
 10
827.3782658521833
 20
243.0959282161357
 30
0.0
 10
827.3782658521833
 20
241.0047552565891
 30
0.0
 10
827.3782658521833
 20
241.0047552565891
 30
0.0
 10
827.3782658521833
 20
241.0047552565891
 30
0.0
 10
828.9533635080395
 20
241.0047552565891
 30
0.0
 10
828.9533635080395
 20
241.0047552565891
 30
0.0
 10
829.622401051275
 20
241.0047552565891
 30
0.0
 10
830.138820864514
 20
241.334795404076
 30
0.0
 10
830.138820864514
 20
242.0544758509447
 30
0.0
 10
830.138820864514
 20
242.7741562978134
 30
0.0
 10
829.622401051275
 20
243.0959282161357
 30
0.0
 10
828.9533635080395
 20
243.0959282161357
 30
0.0
 10
828.9533635080395
 20
243.0959282161357
 30
0.0
 10
827.3782658521833
 20
243.0959282161357
 30
0.0
 10
827.3782658521833
 20
243.0959282161357
 30
0.0
  0
SPLINE
  5
39C
330
354
100
AcDbEntity
  8
Layer 1
370
     0
100
AcDbSpline
210
0.0
220
0.0
230
1.0
 70
    11
 71
     3
 72
    20
 73
    16
 74
     0
 42
0.0000000001
 43
0.0000000001
 12
1.0
 22
0.0
 32
0.0
 13
1.0
 23
0.0
 33
0.0
 40
0.0
 40
0.0
 40
0.0
 40
0.0
 40
1.0
 40
1.0
 40
1.0
 40
2.0
 40
2.0
 40
2.0
 40
3.0
 40
3.0
 40
3.0
 40
4.0
 40
4.0
 40
4.0
 40
5.0
 40
5.0
 40
5.0
 40
5.0
 10
827.3782658521833
 20
240.4287352914553
 30
0.0
 10
827.3782658521833
 20
240.4287352914553
 30
0.0
 10
827.3782658521833
 20
238.2187065376675
 30
0.0
 10
827.3782658521833
 20
238.2187065376675
 30
0.0
 10
827.3782658521833
 20
238.2187065376675
 30
0.0
 10
829.0212318890989
 20
238.2187065376675
 30
0.0
 10
829.0212318890989
 20
238.2187065376675
 30
0.0
 10
829.7664060425584
 20
238.2187065376675
 30
0.0
 10
830.2318384426156
 20
238.6507215115179
 30
0.0
 10
830.2318384426156
 20
239.328027283918
 30
0.0
 10
830.2318384426156
 20
240.0053330563181
 30
0.0
 10
829.7664060425584
 20
240.4287352914553
 30
0.0
 10
829.0212318890989
 20
240.4287352914553
 30
0.0
 10
829.0212318890989
 20
240.4287352914553
 30
0.0
 10
827.3782658521833
 20
240.4287352914553
 30
0.0
 10
827.3782658521833
 20
240.4287352914553
 30
0.0
  0
HATCH
  5
39D
330
354
100
AcDbEntity
  8
Layer 1
 62
     7
100
AcDbHatch
 10
0.0
 20
0.0
 30
0.0
210
0.0
220
0.0
230
1.0
  2
SOLID
 70
     1
 71
     0
 91
        3
 92
        1
 93
        1
 72
     4
 94
        3
 73
     0
 74
     1
 95
       26
 96
       22
 40
0.0
 40
0.0
 40
0.0
 40
0.0
 40
1.0
 40
1.0
 40
1.0
 40
2.0
 40
2.0
 40
2.0
 40
3.0
 40
3.0
 40
3.0
 40
4.0
 40
4.0
 40
4.0
 40
5.0
 40
5.0
 40
5.0
 40
6.0
 40
6.0
 40
6.0
 40
7.0
 40
7.0
 40
7.0
 40
7.0
 10
829.0040064116727
 20
243.6719481812695
 10
830.0540715155768
 20
243.6719481812695
 10
830.7823647011586
 20
243.0707790190934
 10
830.7823647011586
 20
242.0630885896578
 10
830.7823647011586
 20
241.4278129821778
 10
830.40133714049
 20
240.9282741368166
 10
829.8931855564156
 20
240.7422389806131
 10
830.4688610120008
 20
240.5303656082702
 10
830.8753822792604
 20
240.030826762909
 10
830.8753822792604
 20
239.3111463160403
 10
830.8753822792604
 20
238.2187065376675
 10
830.1474336032271
 20
237.6430310820823
 10
829.0804875314452
 20
237.6430310820823
 10
829.0804875314452
 20
237.6430310820823
 10
826.7350665250871
 20
237.6430310820823
 10
826.7350665250871
 20
237.6430310820823
 10
826.7350665250871
 20
237.6430310820823
 10
826.7350665250871
 20
243.6719481812695
 10
826.7350665250871
 20
243.6719481812695
 10
826.7350665250871
 20
243.6719481812695
 10
829.0040064116727
 20
243.6719481812695
 10
829.0040064116727
 20
243.6719481812695
 97
        0
 92
        1
 93
        1
 72
     4
 94
        3
 73
     0
 74
     1
 95
       20
 96
       16
 40
0.0
 40
0.0
 40
0.0
 40
0.0
 40
1.0
 40
1.0
 40
1.0
 40
2.0
 40
2.0
 40
2.0
 40
3.0
 40
3.0
 40
3.0
 40
4.0
 40
4.0
 40
4.0
 40
5.0
 40
5.0
 40
5.0
 40
5.0
 10
827.3782658521833
 20
243.0959282161357
 10
827.3782658521833
 20
243.0959282161357
 10
827.3782658521833
 20
241.0047552565891
 10
827.3782658521833
 20
241.0047552565891
 10
827.3782658521833
 20
241.0047552565891
 10
828.9533635080395
 20
241.0047552565891
 10
828.9533635080395
 20
241.0047552565891
 10
829.622401051275
 20
241.0047552565891
 10
830.138820864514
 20
241.334795404076
 10
830.138820864514
 20
242.0544758509447
 10
830.138820864514
 20
242.7741562978134
 10
829.622401051275
 20
243.0959282161357
 10
828.9533635080395
 20
243.0959282161357
 10
828.9533635080395
 20
243.0959282161357
 10
827.3782658521833
 20
243.0959282161357
 10
827.3782658521833
 20
243.0959282161357
 97
        0
 92
        1
 93
        1
 72
     4
 94
        3
 73
     0
 74
     1
 95
       20
 96
       16
 40
0.0
 40
0.0
 40
0.0
 40
0.0
 40
1.0
 40
1.0
 40
1.0
 40
2.0
 40
2.0
 40
2.0
 40
3.0
 40
3.0
 40
3.0
 40
4.0
 40
4.0
 40
4.0
 40
5.0
 40
5.0
 40
5.0
 40
5.0
 10
827.3782658521833
 20
240.4287352914553
 10
827.3782658521833
 20
240.4287352914553
 10
827.3782658521833
 20
238.2187065376675
 10
827.3782658521833
 20
238.2187065376675
 10
827.3782658521833
 20
238.2187065376675
 10
829.0212318890989
 20
238.2187065376675
 10
829.0212318890989
 20
238.2187065376675
 10
829.7664060425584
 20
238.2187065376675
 10
830.2318384426156
 20
238.6507215115179
 10
830.2318384426156
 20
239.328027283918
 10
830.2318384426156
 20
240.0053330563181
 10
829.7664060425584
 20
240.4287352914553
 10
829.0212318890989
 20
240.4287352914553
 10
829.0212318890989
 20
240.4287352914553
 10
827.3782658521833
 20
240.4287352914553
 10
827.3782658521833
 20
240.4287352914553
 97
        0
 75
     2
 76
     1
 98
        0
  0
POLYLINE
  5
39E
330
354
100
AcDbEntity
  8
Layer 1
370
     0
100
AcDb2dPolyline
 66
     1
 10
0.0
 20
0.0
 30
0.0
  0
VERTEX
  5
39F
330
39E
100
AcDbEntity
  8
Layer 1
370
     0
100
AcDbVertex
100
AcDb2dVertex
 10
834.261911141261
 20
238.5997340983362
 30
0.0
  0
VERTEX
  5
3A0
330
39E
100
AcDbEntity
  8
Layer 1
370
     0
100
AcDbVertex
100
AcDb2dVertex
 10
831.8572344925566
 20
238.5997340983362
 30
0.0
  0
VERTEX
  5
3A1
330
39E
100
AcDbEntity
  8
Layer 1
370
     0
100
AcDbVertex
100
AcDb2dVertex
 10
831.8572344925566
 20
239.1502603568791
 30
0.0
  0
VERTEX
  5
3A2
330
39E
100
AcDbEntity
  8
Layer 1
370
     0
100
AcDbVertex
100
AcDb2dVertex
 10
834.0335013105889
 20
243.6719481812695
 30
0.0
  0
VERTEX
  5
3A3
330
39E
100
AcDbEntity
  8
Layer 1
370
     0
100
AcDbVertex
100
AcDb2dVertex
 10
834.6853133763982
 20
243.6719481812695
 30
0.0
  0
VERTEX
  5
3A4
330
39E
100
AcDbEntity
  8
Layer 1
370
     0
100
AcDbVertex
100
AcDb2dVertex
 10
832.5093910679144
 20
239.1502603568791
 30
0.0
  0
VERTEX
  5
3A5
330
39E
100
AcDbEntity
  8
Layer 1
370
     0
100
AcDbVertex
100
AcDb2dVertex
 10
834.261911141261
 20
239.1502603568791
 30
0.0
  0
VERTEX
  5
3A6
330
39E
100
AcDbEntity
  8
Layer 1
370
     0
100
AcDbVertex
100
AcDb2dVertex
 10
834.261911141261
 20
240.8607502653057
 30
0.0
  0
VERTEX
  5
3A7
330
39E
100
AcDbEntity
  8
Layer 1
370
     0
100
AcDbVertex
100
AcDb2dVertex
 10
834.8630803034371
 20
240.8607502653057
 30
0.0
  0
VERTEX
  5
3A8
330
39E
100
AcDbEntity
  8
Layer 1
370
     0
100
AcDbVertex
100
AcDb2dVertex
 10
834.8630803034371
 20
239.1502603568791
 30
0.0
  0
VERTEX
  5
3A9
330
39E
100
AcDbEntity
  8
Layer 1
370
     0
100
AcDbVertex
100
AcDb2dVertex
 10
835.599986227732
 20
239.1502603568791
 30
0.0
  0
VERTEX
  5
3AA
330
39E
100
AcDbEntity
  8
Layer 1
370
     0
100
AcDbVertex
100
AcDb2dVertex
 10
835.599986227732
 20
238.5997340983362
 30
0.0
  0
VERTEX
  5
3AB
330
39E
100
AcDbEntity
  8
Layer 1
370
     0
100
AcDbVertex
100
AcDb2dVertex
 10
834.8630803034371
 20
238.5997340983362
 30
0.0
  0
VERTEX
  5
3AC
330
39E
100
AcDbEntity
  8
Layer 1
370
     0
100
AcDbVertex
100
AcDb2dVertex
 10
834.8630803034371
 20
237.6430310820823
 30
0.0
  0
VERTEX
  5
3AD
330
39E
100
AcDbEntity
  8
Layer 1
370
     0
100
AcDbVertex
100
AcDb2dVertex
 10
834.261911141261
 20
237.6430310820823
 30
0.0
  0
VERTEX
  5
3AE
330
39E
100
AcDbEntity
  8
Layer 1
370
     0
100
AcDbVertex
100
AcDb2dVertex
 10
834.261911141261
 20
238.5997340983362
 30
0.0
  0
SEQEND
  5
3AF
330
39E
100
AcDbEntity
  8
Layer 1
370
     0
  0
HATCH
  5
3B0
330
354
100
AcDbEntity
  8
Layer 1
 62
     7
100
AcDbHatch
 10
0.0
 20
0.0
 30
0.0
210
0.0
220
0.0
230
1.0
  2
SOLID
 70
     1
 71
     0
 91
        1
 92
        1
 93
       15
 72
     1
 10
834.261911141261
 20
238.5997340983362
 11
831.8572344925566
 21
238.5997340983362
 72
     1
 10
831.8572344925566
 20
238.5997340983362
 11
831.8572344925566
 21
239.1502603568791
 72
     1
 10
831.8572344925566
 20
239.1502603568791
 11
834.0335013105889
 21
243.6719481812695
 72
     1
 10
834.0335013105889
 20
243.6719481812695
 11
834.6853133763982
 21
243.6719481812695
 72
     1
 10
834.6853133763982
 20
243.6719481812695
 11
832.5093910679144
 21
239.1502603568791
 72
     1
 10
832.5093910679144
 20
239.1502603568791
 11
834.261911141261
 21
239.1502603568791
 72
     1
 10
834.261911141261
 20
239.1502603568791
 11
834.261911141261
 21
240.8607502653057
 72
     1
 10
834.261911141261
 20
240.8607502653057
 11
834.8630803034371
 21
240.8607502653057
 72
     1
 10
834.8630803034371
 20
240.8607502653057
 11
834.8630803034371
 21
239.1502603568791
 72
     1
 10
834.8630803034371
 20
239.1502603568791
 11
835.599986227732
 21
239.1502603568791
 72
     1
 10
835.599986227732
 20
239.1502603568791
 11
835.599986227732
 21
238.5997340983362
 72
     1
 10
835.599986227732
 20
238.5997340983362
 11
834.8630803034371
 21
238.5997340983362
 72
     1
 10
834.8630803034371
 20
238.5997340983362
 11
834.8630803034371
 21
237.6430310820823
 72
     1
 10
834.8630803034371
 20
237.6430310820823
 11
834.261911141261
 21
237.6430310820823
 72
     1
 10
834.261911141261
 20
237.6430310820823
 11
834.261911141261
 21
238.5997340983362
 97
        0
 75
     2
 76
     1
 98
        0
  0
SPLINE
  5
3B1
330
354
100
AcDbEntity
  8
Layer 1
370
     0
100
AcDbSpline
210
0.0
220
0.0
230
1.0
 70
    11
 71
     3
 72
    29
 73
    25
 74
     0
 42
0.0000000001
 43
0.0000000001
 12
1.0
 22
0.0
 32
0.0
 13
1.0
 23
0.0
 33
0.0
 40
0.0
 40
0.0
 40
0.0
 40
0.0
 40
1.0
 40
1.0
 40
1.0
 40
2.0
 40
2.0
 40
2.0
 40
3.0
 40
3.0
 40
3.0
 40
4.0
 40
4.0
 40
4.0
 40
5.0
 40
5.0
 40
5.0
 40
6.0
 40
6.0
 40
6.0
 40
7.0
 40
7.0
 40
7.0
 40
8.0
 40
8.0
 40
8.0
 40
8.0
 10
836.3696205591368
 20
239.3025335773272
 30
0.0
 10
836.3696205591368
 20
240.0053330563181
 30
0.0
 10
836.7678735972316
 20
240.479722704637
 30
0.0
 10
837.2756806717575
 20
240.7673881776554
 30
0.0
 10
836.8016355329871
 20
241.0385171923446
 30
0.0
 10
836.4884763533779
 20
241.4788003953595
 30
0.0
 10
836.4884763533779
 20
242.1054632641264
 30
0.0
 10
836.4884763533779
 20
243.0452853125026
 30
0.0
 10
837.1912758323689
 20
243.7225910849027
 30
0.0
 10
838.1479788486228
 20
243.7225910849027
 30
0.0
 10
839.1046818648766
 20
243.7225910849027
 30
0.0
 10
839.8074813438676
 20
243.0452853125026
 30
0.0
 10
839.8074813438676
 20
242.1054632641264
 30
0.0
 10
839.8074813438676
 20
241.4788003953595
 30
0.0
 10
839.502590393423
 20
241.0385171923446
 30
0.0
 10
839.0285452546526
 20
240.7673881776554
 30
0.0
 10
839.5366968387269
 20
240.479722704637
 30
0.0
 10
839.9259926285602
 20
240.0053330563181
 30
0.0
 10
839.9259926285602
 20
239.3025335773272
 30
0.0
 10
839.9259926285602
 20
238.286574918727
 30
0.0
 10
839.1470565393453
 20
237.5923881784491
 30
0.0
 10
838.1479788486228
 20
237.5923881784491
 30
0.0
 10
837.1489011579004
 20
237.5923881784491
 30
0.0
 10
836.3696205591368
 20
238.286574918727
 30
0.0
 10
836.3696205591368
 20
239.3025335773272
 30
0.0
  0
SPLINE
  5
3B2
330
354
100
AcDbEntity
  8
Layer 1
370
     0
100
AcDbSpline
210
0.0
220
0.0
230
1.0
 70
    11
 71
     3
 72
    17
 73
    13
 74
     0
 42
0.0000000001
 43
0.0000000001
 12
1.0
 22
0.0
 32
0.0
 13
1.0
 23
0.0
 33
0.0
 40
0.0
 40
0.0
 40
0.0
 40
0.0
 40
1.0
 40
1.0
 40
1.0
 40
2.0
 40
2.0
 40
2.0
 40
3.0
 40
3.0
 40
3.0
 40
4.0
 40
4.0
 40
4.0
 40
4.0
 10
839.3165552372195
 20
239.3111463160403
 30
0.0
 10
839.3165552372195
 20
239.9801838592758
 30
0.0
 10
838.8084036531452
 20
240.4879909338016
 30
0.0
 10
838.1479788486228
 20
240.4879909338016
 30
0.0
 10
837.4875540441004
 20
240.4879909338016
 30
0.0
 10
836.979402460026
 20
239.9801838592758
 30
0.0
 10
836.979402460026
 20
239.3111463160403
 30
0.0
 10
836.979402460026
 20
238.6421087728048
 30
0.0
 10
837.4875540441004
 20
238.1343016982789
 30
0.0
 10
838.1479788486228
 20
238.1343016982789
 30
0.0
 10
838.8084036531452
 20
238.1343016982789
 30
0.0
 10
839.3165552372195
 20
238.6421087728048
 30
0.0
 10
839.3165552372195
 20
239.3111463160403
 30
0.0
  0
SPLINE
  5
3B3
330
354
100
AcDbEntity
  8
Layer 1
370
     0
100
AcDbSpline
210
0.0
220
0.0
230
1.0
 70
    11
 71
     3
 72
    17
 73
    13
 74
     0
 42
0.0000000001
 43
0.0000000001
 12
1.0
 22
0.0
 32
0.0
 13
1.0
 23
0.0
 33
0.0
 40
0.0
 40
0.0
 40
0.0
 40
0.0
 40
1.0
 40
1.0
 40
1.0
 40
2.0
 40
2.0
 40
2.0
 40
3.0
 40
3.0
 40
3.0
 40
4.0
 40
4.0
 40
4.0
 40
4.0
 10
839.198043952527
 20
242.0968505254133
 30
0.0
 10
839.198043952527
 20
242.7235133941802
 30
0.0
 10
838.7660289786766
 20
243.1806775650729
 30
0.0
 10
838.1479788486228
 20
243.1806775650729
 30
0.0
 10
837.529928718569
 20
243.1806775650729
 30
0.0
 10
837.0979137447187
 20
242.7235133941802
 30
0.0
 10
837.0979137447187
 20
242.0968505254133
 30
0.0
 10
837.0979137447187
 20
241.4619194274817
 30
0.0
 10
837.529928718569
 20
241.0216362244668
 30
0.0
 10
838.1479788486228
 20
241.0216362244668
 30
0.0
 10
838.7660289786766
 20
241.0216362244668
 30
0.0
 10
839.198043952527
 20
241.4619194274817
 30
0.0
 10
839.198043952527
 20
242.0968505254133
 30
0.0
  0
HATCH
  5
3B4
330
354
100
AcDbEntity
  8
Layer 1
 62
     7
100
AcDbHatch
 10
0.0
 20
0.0
 30
0.0
210
0.0
220
0.0
230
1.0
  2
SOLID
 70
     1
 71
     0
 91
        3
 92
        1
 93
        1
 72
     4
 94
        3
 73
     0
 74
     1
 95
       29
 96
       25
 40
0.0
 40
0.0
 40
0.0
 40
0.0
 40
1.0
 40
1.0
 40
1.0
 40
2.0
 40
2.0
 40
2.0
 40
3.0
 40
3.0
 40
3.0
 40
4.0
 40
4.0
 40
4.0
 40
5.0
 40
5.0
 40
5.0
 40
6.0
 40
6.0
 40
6.0
 40
7.0
 40
7.0
 40
7.0
 40
8.0
 40
8.0
 40
8.0
 40
8.0
 10
836.3696205591368
 20
239.3025335773272
 10
836.3696205591368
 20
240.0053330563181
 10
836.7678735972316
 20
240.479722704637
 10
837.2756806717575
 20
240.7673881776554
 10
836.8016355329871
 20
241.0385171923446
 10
836.4884763533779
 20
241.4788003953595
 10
836.4884763533779
 20
242.1054632641264
 10
836.4884763533779
 20
243.0452853125026
 10
837.1912758323689
 20
243.7225910849027
 10
838.1479788486228
 20
243.7225910849027
 10
839.1046818648766
 20
243.7225910849027
 10
839.8074813438676
 20
243.0452853125026
 10
839.8074813438676
 20
242.1054632641264
 10
839.8074813438676
 20
241.4788003953595
 10
839.502590393423
 20
241.0385171923446
 10
839.0285452546526
 20
240.7673881776554
 10
839.5366968387269
 20
240.479722704637
 10
839.9259926285602
 20
240.0053330563181
 10
839.9259926285602
 20
239.3025335773272
 10
839.9259926285602
 20
238.286574918727
 10
839.1470565393453
 20
237.5923881784491
 10
838.1479788486228
 20
237.5923881784491
 10
837.1489011579004
 20
237.5923881784491
 10
836.3696205591368
 20
238.286574918727
 10
836.3696205591368
 20
239.3025335773272
 97
        0
 92
        1
 93
        1
 72
     4
 94
        3
 73
     0
 74
     1
 95
       17
 96
       13
 40
0.0
 40
0.0
 40
0.0
 40
0.0
 40
1.0
 40
1.0
 40
1.0
 40
2.0
 40
2.0
 40
2.0
 40
3.0
 40
3.0
 40
3.0
 40
4.0
 40
4.0
 40
4.0
 40
4.0
 10
839.3165552372195
 20
239.3111463160403
 10
839.3165552372195
 20
239.9801838592758
 10
838.8084036531452
 20
240.4879909338016
 10
838.1479788486228
 20
240.4879909338016
 10
837.4875540441004
 20
240.4879909338016
 10
836.979402460026
 20
239.9801838592758
 10
836.979402460026
 20
239.3111463160403
 10
836.979402460026
 20
238.6421087728048
 10
837.4875540441004
 20
238.1343016982789
 10
838.1479788486228
 20
238.1343016982789
 10
838.8084036531452
 20
238.1343016982789
 10
839.3165552372195
 20
238.6421087728048
 10
839.3165552372195
 20
239.3111463160403
 97
        0
 92
        1
 93
        1
 72
     4
 94
        3
 73
     0
 74
     1
 95
       17
 96
       13
 40
0.0
 40
0.0
 40
0.0
 40
0.0
 40
1.0
 40
1.0
 40
1.0
 40
2.0
 40
2.0
 40
2.0
 40
3.0
 40
3.0
 40
3.0
 40
4.0
 40
4.0
 40
4.0
 40
4.0
 10
839.198043952527
 20
242.0968505254133
 10
839.198043952527
 20
242.7235133941802
 10
838.7660289786766
 20
243.1806775650729
 10
838.1479788486228
 20
243.1806775650729
 10
837.529928718569
 20
243.1806775650729
 10
837.0979137447187
 20
242.7235133941802
 10
837.0979137447187
 20
242.0968505254133
 10
837.0979137447187
 20
241.4619194274817
 10
837.529928718569
 20
241.0216362244668
 10
838.1479788486228
 20
241.0216362244668
 10
838.7660289786766
 20
241.0216362244668
 10
839.198043952527
 20
241.4619194274817
 10
839.198043952527
 20
242.0968505254133
 97
        0
 75
     2
 76
     1
 98
        0
  0
SPLINE
  5
3B5
330
354
100
AcDbEntity
  8
Layer 1
370
     0
100
AcDbSpline
210
0.0
220
0.0
230
1.0
 70
    11
 71
     3
 72
    65
 73
    61
 74
     0
 42
0.0000000001
 43
0.0000000001
 12
1.0
 22
0.0
 32
0.0
 13
1.0
 23
0.0
 33
0.0
 40
0.0
 40
0.0
 40
0.0
 40
0.0
 40
1.0
 40
1.0
 40
1.0
 40
2.0
 40
2.0
 40
2.0
 40
3.0
 40
3.0
 40
3.0
 40
4.0
 40
4.0
 40
4.0
 40
5.0
 40
5.0
 40
5.0
 40
6.0
 40
6.0
 40
6.0
 40
7.0
 40
7.0
 40
7.0
 40
8.0
 40
8.0
 40
8.0
 40
9.0
 40
9.0
 40
9.0
 40
10.0
 40
10.0
 40
10.0
 40
11.0
 40
11.0
 40
11.0
 40
12.0
 40
12.0
 40
12.0
 40
13.0
 40
13.0
 40
13.0
 40
14.0
 40
14.0
 40
14.0
 40
15.0
 40
15.0
 40
15.0
 40
16.0
 40
16.0
 40
16.0
 40
17.0
 40
17.0
 40
17.0
 40
18.0
 40
18.0
 40
18.0
 40
19.0
 40
19.0
 40
19.0
 40
20.0
 40
20.0
 40
20.0
 40
20.0
 10
846.7080076008231
 20
243.0621662803803
 30
0.0
 10
846.7080076008231
 20
243.0621662803803
 30
0.0
 10
846.2928735948504
 20
242.6473767839562
 30
0.0
 10
846.2928735948504
 20
242.6473767839562
 30
0.0
 10
845.9287270020595
 20
242.9942978993209
 30
0.0
 10
845.5139375056355
 20
243.1724093359083
 30
0.0
 10
844.8872746368685
 20
243.1724093359083
 30
0.0
 10
844.074576611898
 20
243.1724093359083
 30
0.0
 10
843.6087997022922
 20
242.7235133941802
 30
0.0
 10
843.6087997022922
 20
242.0462076217801
 30
0.0
 10
843.6087997022922
 20
241.7495849005001
 30
0.0
 10
843.6935490512294
 20
241.5042941019503
 30
0.0
 10
843.8799287169815
 20
241.3434081427892
 30
0.0
 10
844.065963873185
 20
241.182522183628
 30
0.0
 10
844.3539738557519
 20
241.0808918668131
 30
0.0
 10
844.6671330353611
 20
241.0299044536314
 30
0.0
 10
844.6671330353611
 20
241.0299044536314
 30
0.0
 10
845.369932514352
 20
240.920005907652
 30
0.0
 10
845.369932514352
 20
240.920005907652
 30
0.0
 10
845.9287270020595
 20
240.8352565587148
 30
0.0
 10
846.1912432780356
 20
240.7336262418999
 30
0.0
 10
846.4623722927247
 20
240.4879909338016
 30
0.0
 10
846.7841442110471
 20
240.2085936899479
 30
0.0
 10
846.9705238767991
 20
239.8020724226884
 30
0.0
 10
846.9705238767991
 20
239.3025335773272
 30
0.0
 10
846.9705238767991
 20
238.2442002442584
 30
0.0
 10
846.1488686035669
 20
237.5923881784491
 30
0.0
 10
844.8872746368685
 20
237.5923881784491
 30
0.0
 10
843.989827262961
 20
237.5923881784491
 30
0.0
 10
843.3886581007848
 20
237.8207980091212
 30
0.0
 10
842.8298636130774
 20
238.3882052355418
 30
0.0
 10
842.8298636130774
 20
238.3882052355418
 30
0.0
 10
843.2615340773791
 20
238.8198756998437
 30
0.0
 10
843.2615340773791
 20
238.8198756998437
 30
0.0
 10
843.7610729227404
 20
238.3203368544824
 30
0.0
 10
844.2268498323461
 20
238.1680636340344
 30
0.0
 10
844.9045001142947
 20
238.1680636340344
 30
0.0
 10
845.7933347494892
 20
238.1680636340344
 30
0.0
 10
846.335248269319
 20
238.5745849012939
 30
0.0
 10
846.335248269319
 20
239.2856526094494
 30
0.0
 10
846.335248269319
 20
239.6074245277718
 30
0.0
 10
846.2422306912173
 20
239.8613280650347
 30
0.0
 10
846.0389700575876
 20
240.0394395016221
 30
0.0
 10
845.8525903918355
 20
240.2085936899479
 30
0.0
 10
845.6834362035097
 20
240.2678493322942
 30
0.0
 10
845.2514212296594
 20
240.3357177133536
 30
0.0
 10
845.2514212296594
 20
240.3357177133536
 30
0.0
 10
844.5486217506684
 20
240.4373480301685
 30
0.0
 10
844.5486217506684
 20
240.4373480301685
 30
0.0
 10
844.074576611898
 20
240.5134846403925
 30
0.0
 10
843.7190427578203
 20
240.6574896316759
 30
0.0
 10
843.4479137431312
 20
240.8945122010611
 30
0.0
 10
843.1430227926865
 20
241.1656412157503
 30
0.0
 10
842.9821368335254
 20
241.5380560377058
 30
0.0
 10
842.9821368335254
 20
242.0289821443539
 30
0.0
 10
842.9821368335254
 20
243.0535535416672
 30
0.0
 10
843.7190427578203
 20
243.7225910849027
 30
0.0
 10
844.9127683434593
 20
243.7225910849027
 30
0.0
 10
845.6834362035097
 20
243.7225910849027
 30
0.0
 10
846.1912432780356
 20
243.519330451273
 30
0.0
 10
846.7080076008231
 20
243.0621662803803
 30
0.0
  0
HATCH
  5
3B6
330
354
100
AcDbEntity
  8
Layer 1
 62
     7
100
AcDbHatch
 10
0.0
 20
0.0
 30
0.0
210
0.0
220
0.0
230
1.0
  2
SOLID
 70
     1
 71
     0
 91
        1
 92
        1
 93
        1
 72
     4
 94
        3
 73
     0
 74
     1
 95
       65
 96
       61
 40
0.0
 40
0.0
 40
0.0
 40
0.0
 40
1.0
 40
1.0
 40
1.0
 40
2.0
 40
2.0
 40
2.0
 40
3.0
 40
3.0
 40
3.0
 40
4.0
 40
4.0
 40
4.0
 40
5.0
 40
5.0
 40
5.0
 40
6.0
 40
6.0
 40
6.0
 40
7.0
 40
7.0
 40
7.0
 40
8.0
 40
8.0
 40
8.0
 40
9.0
 40
9.0
 40
9.0
 40
10.0
 40
10.0
 40
10.0
 40
11.0
 40
11.0
 40
11.0
 40
12.0
 40
12.0
 40
12.0
 40
13.0
 40
13.0
 40
13.0
 40
14.0
 40
14.0
 40
14.0
 40
15.0
 40
15.0
 40
15.0
 40
16.0
 40
16.0
 40
16.0
 40
17.0
 40
17.0
 40
17.0
 40
18.0
 40
18.0
 40
18.0
 40
19.0
 40
19.0
 40
19.0
 40
20.0
 40
20.0
 40
20.0
 40
20.0
 10
846.7080076008231
 20
243.0621662803803
 10
846.7080076008231
 20
243.0621662803803
 10
846.2928735948504
 20
242.6473767839562
 10
846.2928735948504
 20
242.6473767839562
 10
845.9287270020595
 20
242.9942978993209
 10
845.5139375056355
 20
243.1724093359083
 10
844.8872746368685
 20
243.1724093359083
 10
844.074576611898
 20
243.1724093359083
 10
843.6087997022922
 20
242.7235133941802
 10
843.6087997022922
 20
242.0462076217801
 10
843.6087997022922
 20
241.7495849005001
 10
843.6935490512294
 20
241.5042941019503
 10
843.8799287169815
 20
241.3434081427892
 10
844.065963873185
 20
241.182522183628
 10
844.3539738557519
 20
241.0808918668131
 10
844.6671330353611
 20
241.0299044536314
 10
844.6671330353611
 20
241.0299044536314
 10
845.369932514352
 20
240.920005907652
 10
845.369932514352
 20
240.920005907652
 10
845.9287270020595
 20
240.8352565587148
 10
846.1912432780356
 20
240.7336262418999
 10
846.4623722927247
 20
240.4879909338016
 10
846.7841442110471
 20
240.2085936899479
 10
846.9705238767991
 20
239.8020724226884
 10
846.9705238767991
 20
239.3025335773272
 10
846.9705238767991
 20
238.2442002442584
 10
846.1488686035669
 20
237.5923881784491
 10
844.8872746368685
 20
237.5923881784491
 10
843.989827262961
 20
237.5923881784491
 10
843.3886581007848
 20
237.8207980091212
 10
842.8298636130774
 20
238.3882052355418
 10
842.8298636130774
 20
238.3882052355418
 10
843.2615340773791
 20
238.8198756998437
 10
843.2615340773791
 20
238.8198756998437
 10
843.7610729227404
 20
238.3203368544824
 10
844.2268498323461
 20
238.1680636340344
 10
844.9045001142947
 20
238.1680636340344
 10
845.7933347494892
 20
238.1680636340344
 10
846.335248269319
 20
238.5745849012939
 10
846.335248269319
 20
239.2856526094494
 10
846.335248269319
 20
239.6074245277718
 10
846.2422306912173
 20
239.8613280650347
 10
846.0389700575876
 20
240.0394395016221
 10
845.8525903918355
 20
240.2085936899479
 10
845.6834362035097
 20
240.2678493322942
 10
845.2514212296594
 20
240.3357177133536
 10
845.2514212296594
 20
240.3357177133536
 10
844.5486217506684
 20
240.4373480301685
 10
844.5486217506684
 20
240.4373480301685
 10
844.074576611898
 20
240.5134846403925
 10
843.7190427578203
 20
240.6574896316759
 10
843.4479137431312
 20
240.8945122010611
 10
843.1430227926865
 20
241.1656412157503
 10
842.9821368335254
 20
241.5380560377058
 10
842.9821368335254
 20
242.0289821443539
 10
842.9821368335254
 20
243.0535535416672
 10
843.7190427578203
 20
243.7225910849027
 10
844.9127683434593
 20
243.7225910849027
 10
845.6834362035097
 20
243.7225910849027
 10
846.1912432780356
 20
243.519330451273
 10
846.7080076008231
 20
243.0621662803803
 97
        0
 75
     2
 76
     1
 98
        0
  0
SPLINE
  5
3B7
330
354
100
AcDbEntity
  8
Layer 1
370
     0
100
AcDbSpline
210
0.0
220
0.0
230
1.0
 70
    11
 71
     3
 72
    53
 73
    49
 74
     0
 42
0.0000000001
 43
0.0000000001
 12
1.0
 22
0.0
 32
0.0
 13
1.0
 23
0.0
 33
0.0
 40
0.0
 40
0.0
 40
0.0
 40
0.0
 40
1.0
 40
1.0
 40
1.0
 40
2.0
 40
2.0
 40
2.0
 40
3.0
 40
3.0
 40
3.0
 40
4.0
 40
4.0
 40
4.0
 40
5.0
 40
5.0
 40
5.0
 40
6.0
 40
6.0
 40
6.0
 40
7.0
 40
7.0
 40
7.0
 40
8.0
 40
8.0
 40
8.0
 40
9.0
 40
9.0
 40
9.0
 40
10.0
 40
10.0
 40
10.0
 40
11.0
 40
11.0
 40
11.0
 40
12.0
 40
12.0
 40
12.0
 40
13.0
 40
13.0
 40
13.0
 40
14.0
 40
14.0
 40
14.0
 40
15.0
 40
15.0
 40
15.0
 40
16.0
 40
16.0
 40
16.0
 40
16.0
 10
848.9176918450623
 20
241.8088405428464
 30
0.0
 10
848.9176918450623
 20
241.8088405428464
 30
0.0
 10
849.8065264802567
 20
241.8088405428464
 30
0.0
 10
849.8065264802567
 20
241.8088405428464
 30
0.0
 10
849.8065264802567
 20
241.8088405428464
 30
0.0
 10
849.8065264802567
 20
241.3434081427892
 30
0.0
 10
849.8065264802567
 20
241.3434081427892
 30
0.0
 10
849.8065264802567
 20
241.3434081427892
 30
0.0
 10
848.9176918450623
 20
241.3434081427892
 30
0.0
 10
848.9176918450623
 20
241.3434081427892
 30
0.0
 10
848.9176918450623
 20
241.3434081427892
 30
0.0
 10
848.9176918450623
 20
238.7775010253751
 30
0.0
 10
848.9176918450623
 20
238.7775010253751
 30
0.0
 10
848.9176918450623
 20
238.3882052355418
 30
0.0
 10
849.0954587721012
 20
238.1680636340344
 30
0.0
 10
849.4847545619344
 20
238.1680636340344
 30
0.0
 10
849.4847545619344
 20
238.1680636340344
 30
0.0
 10
849.8065264802567
 20
238.1680636340344
 30
0.0
 10
849.8065264802567
 20
238.1680636340344
 30
0.0
 10
849.8065264802567
 20
238.1680636340344
 30
0.0
 10
849.8065264802567
 20
237.6430310820823
 30
0.0
 10
849.8065264802567
 20
237.6430310820823
 30
0.0
 10
849.8065264802567
 20
237.6430310820823
 30
0.0
 10
849.374856015955
 20
237.6430310820823
 30
0.0
 10
849.374856015955
 20
237.6430310820823
 30
0.0
 10
848.6634437982508
 20
237.6430310820823
 30
0.0
 10
848.307909944173
 20
238.1425699274435
 30
0.0
 10
848.307909944173
 20
238.7606200574974
 30
0.0
 10
848.307909944173
 20
238.7606200574974
 30
0.0
 10
848.307909944173
 20
241.3434081427892
 30
0.0
 10
848.307909944173
 20
241.3434081427892
 30
0.0
 10
848.307909944173
 20
241.3434081427892
 30
0.0
 10
847.7828773922209
 20
241.3434081427892
 30
0.0
 10
847.7828773922209
 20
241.3434081427892
 30
0.0
 10
847.7828773922209
 20
241.3434081427892
 30
0.0
 10
847.7828773922209
 20
241.8088405428464
 30
0.0
 10
847.7828773922209
 20
241.8088405428464
 30
0.0
 10
847.7828773922209
 20
241.8088405428464
 30
0.0
 10
848.307909944173
 20
241.8088405428464
 30
0.0
 10
848.307909944173
 20
241.8088405428464
 30
0.0
 10
848.307909944173
 20
241.8088405428464
 30
0.0
 10
848.307909944173
 20
243.0876599869711
 30
0.0
 10
848.307909944173
 20
243.0876599869711
 30
0.0
 10
848.307909944173
 20
243.0876599869711
 30
0.0
 10
848.9176918450623
 20
243.0876599869711
 30
0.0
 10
848.9176918450623
 20
243.0876599869711
 30
0.0
 10
848.9176918450623
 20
243.0876599869711
 30
0.0
 10
848.9176918450623
 20
241.8088405428464
 30
0.0
 10
848.9176918450623
 20
241.8088405428464
 30
0.0
  0
HATCH
  5
3B8
330
354
100
AcDbEntity
  8
Layer 1
 62
     7
100
AcDbHatch
 10
0.0
 20
0.0
 30
0.0
210
0.0
220
0.0
230
1.0
  2
SOLID
 70
     1
 71
     0
 91
        1
 92
        1
 93
        1
 72
     4
 94
        3
 73
     0
 74
     1
 95
       53
 96
       49
 40
0.0
 40
0.0
 40
0.0
 40
0.0
 40
1.0
 40
1.0
 40
1.0
 40
2.0
 40
2.0
 40
2.0
 40
3.0
 40
3.0
 40
3.0
 40
4.0
 40
4.0
 40
4.0
 40
5.0
 40
5.0
 40
5.0
 40
6.0
 40
6.0
 40
6.0
 40
7.0
 40
7.0
 40
7.0
 40
8.0
 40
8.0
 40
8.0
 40
9.0
 40
9.0
 40
9.0
 40
10.0
 40
10.0
 40
10.0
 40
11.0
 40
11.0
 40
11.0
 40
12.0
 40
12.0
 40
12.0
 40
13.0
 40
13.0
 40
13.0
 40
14.0
 40
14.0
 40
14.0
 40
15.0
 40
15.0
 40
15.0
 40
16.0
 40
16.0
 40
16.0
 40
16.0
 10
848.9176918450623
 20
241.8088405428464
 10
848.9176918450623
 20
241.8088405428464
 10
849.8065264802567
 20
241.8088405428464
 10
849.8065264802567
 20
241.8088405428464
 10
849.8065264802567
 20
241.8088405428464
 10
849.8065264802567
 20
241.3434081427892
 10
849.8065264802567
 20
241.3434081427892
 10
849.8065264802567
 20
241.3434081427892
 10
848.9176918450623
 20
241.3434081427892
 10
848.9176918450623
 20
241.3434081427892
 10
848.9176918450623
 20
241.3434081427892
 10
848.9176918450623
 20
238.7775010253751
 10
848.9176918450623
 20
238.7775010253751
 10
848.9176918450623
 20
238.3882052355418
 10
849.0954587721012
 20
238.1680636340344
 10
849.4847545619344
 20
238.1680636340344
 10
849.4847545619344
 20
238.1680636340344
 10
849.8065264802567
 20
238.1680636340344
 10
849.8065264802567
 20
238.1680636340344
 10
849.8065264802567
 20
238.1680636340344
 10
849.8065264802567
 20
237.6430310820823
 10
849.8065264802567
 20
237.6430310820823
 10
849.8065264802567
 20
237.6430310820823
 10
849.374856015955
 20
237.6430310820823
 10
849.374856015955
 20
237.6430310820823
 10
848.6634437982508
 20
237.6430310820823
 10
848.307909944173
 20
238.1425699274435
 10
848.307909944173
 20
238.7606200574974
 10
848.307909944173
 20
238.7606200574974
 10
848.307909944173
 20
241.3434081427892
 10
848.307909944173
 20
241.3434081427892
 10
848.307909944173
 20
241.3434081427892
 10
847.7828773922209
 20
241.3434081427892
 10
847.7828773922209
 20
241.3434081427892
 10
847.7828773922209
 20
241.3434081427892
 10
847.7828773922209
 20
241.8088405428464
 10
847.7828773922209
 20
241.8088405428464
 10
847.7828773922209
 20
241.8088405428464
 10
848.307909944173
 20
241.8088405428464
 10
848.307909944173
 20
241.8088405428464
 10
848.307909944173
 20
241.8088405428464
 10
848.307909944173
 20
243.0876599869711
 10
848.307909944173
 20
243.0876599869711
 10
848.307909944173
 20
243.0876599869711
 10
848.9176918450623
 20
243.0876599869711
 10
848.9176918450623
 20
243.0876599869711
 10
848.9176918450623
 20
243.0876599869711
 10
848.9176918450623
 20
241.8088405428464
 10
848.9176918450623
 20
241.8088405428464
 97
        0
 75
     2
 76
     1
 98
        0
  0
SPLINE
  5
3B9
330
354
100
AcDbEntity
  8
Layer 1
370
     0
100
AcDbSpline
210
0.0
220
0.0
230
1.0
 70
    11
 71
     3
 72
    35
 73
    31
 74
     0
 42
0.0000000001
 43
0.0000000001
 12
1.0
 22
0.0
 32
0.0
 13
1.0
 23
0.0
 33
0.0
 40
0.0
 40
0.0
 40
0.0
 40
0.0
 40
1.0
 40
1.0
 40
1.0
 40
2.0
 40
2.0
 40
2.0
 40
3.0
 40
3.0
 40
3.0
 40
4.0
 40
4.0
 40
4.0
 40
5.0
 40
5.0
 40
5.0
 40
6.0
 40
6.0
 40
6.0
 40
7.0
 40
7.0
 40
7.0
 40
8.0
 40
8.0
 40
8.0
 40
9.0
 40
9.0
 40
9.0
 40
10.0
 40
10.0
 40
10.0
 40
10.0
 10
853.7942245044334
 20
241.4701876566463
 30
0.0
 10
853.7942245044334
 20
241.4701876566463
 30
0.0
 10
853.3453285627054
 20
241.0130234857537
 30
0.0
 10
853.3453285627054
 20
241.0130234857537
 30
0.0
 10
853.1165742224848
 20
241.2417778259743
 30
0.0
 10
852.947420034159
 20
241.3179144361983
 30
0.0
 10
852.6256481158367
 20
241.3179144361983
 30
0.0
 10
852.0158662149474
 20
241.3179144361983
 30
0.0
 10
851.6265704251142
 20
240.8352565587148
 30
0.0
 10
851.6265704251142
 20
240.2003254607833
 30
0.0
 10
851.6265704251142
 20
240.2003254607833
 30
0.0
 10
851.6265704251142
 20
237.6430310820823
 30
0.0
 10
851.6265704251142
 20
237.6430310820823
 30
0.0
 10
851.6265704251142
 20
237.6430310820823
 30
0.0
 10
851.016788524225
 20
237.6430310820823
 30
0.0
 10
851.016788524225
 20
237.6430310820823
 30
0.0
 10
851.016788524225
 20
237.6430310820823
 30
0.0
 10
851.016788524225
 20
241.8088405428464
 30
0.0
 10
851.016788524225
 20
241.8088405428464
 30
0.0
 10
851.016788524225
 20
241.8088405428464
 30
0.0
 10
851.6265704251142
 20
241.8088405428464
 30
0.0
 10
851.6265704251142
 20
241.8088405428464
 30
0.0
 10
851.6265704251142
 20
241.8088405428464
 30
0.0
 10
851.6265704251142
 20
241.3010334683206
 30
0.0
 10
851.6265704251142
 20
241.3010334683206
 30
0.0
 10
851.8549802557862
 20
241.6479545836852
 30
0.0
 10
852.312144426679
 20
241.8598279560281
 30
0.0
 10
852.7948023041624
 20
241.8598279560281
 30
0.0
 10
853.1930553422574
 20
241.8598279560281
 30
0.0
 10
853.4976017831534
 20
241.7668103779264
 30
0.0
 10
853.7942245044334
 20
241.4701876566463
 30
0.0
  0
HATCH
  5
3BA
330
354
100
AcDbEntity
  8
Layer 1
 62
     7
100
AcDbHatch
 10
0.0
 20
0.0
 30
0.0
210
0.0
220
0.0
230
1.0
  2
SOLID
 70
     1
 71
     0
 91
        1
 92
        1
 93
        1
 72
     4
 94
        3
 73
     0
 74
     1
 95
       35
 96
       31
 40
0.0
 40
0.0
 40
0.0
 40
0.0
 40
1.0
 40
1.0
 40
1.0
 40
2.0
 40
2.0
 40
2.0
 40
3.0
 40
3.0
 40
3.0
 40
4.0
 40
4.0
 40
4.0
 40
5.0
 40
5.0
 40
5.0
 40
6.0
 40
6.0
 40
6.0
 40
7.0
 40
7.0
 40
7.0
 40
8.0
 40
8.0
 40
8.0
 40
9.0
 40
9.0
 40
9.0
 40
10.0
 40
10.0
 40
10.0
 40
10.0
 10
853.7942245044334
 20
241.4701876566463
 10
853.7942245044334
 20
241.4701876566463
 10
853.3453285627054
 20
241.0130234857537
 10
853.3453285627054
 20
241.0130234857537
 10
853.1165742224848
 20
241.2417778259743
 10
852.947420034159
 20
241.3179144361983
 10
852.6256481158367
 20
241.3179144361983
 10
852.0158662149474
 20
241.3179144361983
 10
851.6265704251142
 20
240.8352565587148
 10
851.6265704251142
 20
240.2003254607833
 10
851.6265704251142
 20
240.2003254607833
 10
851.6265704251142
 20
237.6430310820823
 10
851.6265704251142
 20
237.6430310820823
 10
851.6265704251142
 20
237.6430310820823
 10
851.016788524225
 20
237.6430310820823
 10
851.016788524225
 20
237.6430310820823
 10
851.016788524225
 20
237.6430310820823
 10
851.016788524225
 20
241.8088405428464
 10
851.016788524225
 20
241.8088405428464
 10
851.016788524225
 20
241.8088405428464
 10
851.6265704251142
 20
241.8088405428464
 10
851.6265704251142
 20
241.8088405428464
 10
851.6265704251142
 20
241.8088405428464
 10
851.6265704251142
 20
241.3010334683206
 10
851.6265704251142
 20
241.3010334683206
 10
851.8549802557862
 20
241.6479545836852
 10
852.312144426679
 20
241.8598279560281
 10
852.7948023041624
 20
241.8598279560281
 10
853.1930553422574
 20
241.8598279560281
 10
853.4976017831534
 20
241.7668103779264
 10
853.7942245044334
 20
241.4701876566463
 97
        0
 75
     2
 76
     1
 98
        0
  0
SPLINE
  5
3BB
330
354
100
AcDbEntity
  8
Layer 1
370
     0
100
AcDbSpline
210
0.0
220
0.0
230
1.0
 70
    11
 71
     3
 72
    47
 73
    43
 74
     0
 42
0.0000000001
 43
0.0000000001
 12
1.0
 22
0.0
 32
0.0
 13
1.0
 23
0.0
 33
0.0
 40
0.0
 40
0.0
 40
0.0
 40
0.0
 40
1.0
 40
1.0
 40
1.0
 40
2.0
 40
2.0
 40
2.0
 40
3.0
 40
3.0
 40
3.0
 40
4.0
 40
4.0
 40
4.0
 40
5.0
 40
5.0
 40
5.0
 40
6.0
 40
6.0
 40
6.0
 40
7.0
 40
7.0
 40
7.0
 40
8.0
 40
8.0
 40
8.0
 40
9.0
 40
9.0
 40
9.0
 40
10.0
 40
10.0
 40
10.0
 40
11.0
 40
11.0
 40
11.0
 40
12.0
 40
12.0
 40
12.0
 40
13.0
 40
13.0
 40
13.0
 40
14.0
 40
14.0
 40
14.0
 40
14.0
 10
857.4687633490009
 20
240.4711099659239
 30
0.0
 10
857.4687633490009
 20
240.4711099659239
 30
0.0
 10
857.4687633490009
 20
237.6430310820823
 30
0.0
 10
857.4687633490009
 20
237.6430310820823
 30
0.0
 10
857.4687633490009
 20
237.6430310820823
 30
0.0
 10
856.8589814481116
 20
237.6430310820823
 30
0.0
 10
856.8589814481116
 20
237.6430310820823
 30
0.0
 10
856.8589814481116
 20
237.6430310820823
 30
0.0
 10
856.8589814481116
 20
238.0409396106287
 30
0.0
 10
856.8589814481116
 20
238.0409396106287
 30
0.0
 10
856.5289413006248
 20
237.7108994631417
 30
0.0
 10
856.215437611467
 20
237.5923881784491
 30
0.0
 10
855.6566431237595
 20
237.5923881784491
 30
0.0
 10
855.0809676681743
 20
237.5923881784491
 30
0.0
 10
854.767808488565
 20
237.6936739857155
 30
0.0
 10
854.4797985059981
 20
237.9734157391178
 30
0.0
 10
854.2679251336552
 20
238.176331863199
 30
0.0
 10
854.1662948168404
 20
238.4898355523567
 30
0.0
 10
854.1662948168404
 20
238.8198756998437
 30
0.0
 10
854.1662948168404
 20
239.5567816241386
 30
0.0
 10
854.6830591396279
 20
240.0222140241958
 30
0.0
 10
855.6142684492909
 20
240.0222140241958
 30
0.0
 10
855.6142684492909
 20
240.0222140241958
 30
0.0
 10
856.8589814481116
 20
240.0222140241958
 30
0.0
 10
856.8589814481116
 20
240.0222140241958
 30
0.0
 10
856.8589814481116
 20
240.0222140241958
 30
0.0
 10
856.8589814481116
 20
240.4204670622907
 30
0.0
 10
856.8589814481116
 20
240.4204670622907
 30
0.0
 10
856.8589814481116
 20
241.0216362244668
 30
0.0
 10
856.5627032363802
 20
241.334795404076
 30
0.0
 10
855.7920353763299
 20
241.334795404076
 30
0.0
 10
855.2673473339263
 20
241.334795404076
 30
0.0
 10
854.9962183192371
 20
241.1994031515057
 30
0.0
 10
854.7423147819742
 20
240.8521375265925
 30
0.0
 10
854.7423147819742
 20
240.8521375265925
 30
0.0
 10
854.3271807760016
 20
241.2331650872612
 30
0.0
 10
854.3271807760016
 20
241.2331650872612
 30
0.0
 10
854.6913273687925
 20
241.7158229647447
 30
0.0
 10
855.1147296039297
 20
241.8598279560281
 30
0.0
 10
855.8006481150429
 20
241.8598279560281
 30
0.0
 10
856.9268498291711
 20
241.8598279560281
 30
0.0
 10
857.4687633490009
 20
241.3685573398315
 30
0.0
 10
857.4687633490009
 20
240.4711099659239
 30
0.0
  0
SPLINE
  5
3BC
330
354
100
AcDbEntity
  8
Layer 1
370
     0
100
AcDbSpline
210
0.0
220
0.0
230
1.0
 70
    11
 71
     3
 72
    23
 73
    19
 74
     0
 42
0.0000000001
 43
0.0000000001
 12
1.0
 22
0.0
 32
0.0
 13
1.0
 23
0.0
 33
0.0
 40
0.0
 40
0.0
 40
0.0
 40
0.0
 40
1.0
 40
1.0
 40
1.0
 40
2.0
 40
2.0
 40
2.0
 40
3.0
 40
3.0
 40
3.0
 40
4.0
 40
4.0
 40
4.0
 40
5.0
 40
5.0
 40
5.0
 40
6.0
 40
6.0
 40
6.0
 40
6.0
 10
855.699017798228
 20
239.5650498533032
 30
0.0
 10
855.0723549294611
 20
239.5650498533032
 30
0.0
 10
854.7591957498519
 20
239.3194145452049
 30
0.0
 10
854.7591957498519
 20
238.8284884385568
 30
0.0
 10
854.7591957498519
 20
238.3458305610733
 30
0.0
 10
855.0554739615834
 20
238.1170762208527
 30
0.0
 10
855.7245115048189
 20
238.1170762208527
 30
0.0
 10
856.0717771297321
 20
238.1170762208527
 30
0.0
 10
856.3763235706282
 20
238.1511826661567
 30
0.0
 10
856.6474525853173
 20
238.3964734647064
 30
0.0
 10
856.7914575766008
 20
238.5322102268253
 30
0.0
 10
856.8589814481116
 20
238.7692327962105
 30
0.0
 10
856.8589814481116
 20
239.1164984211237
 30
0.0
 10
856.8589814481116
 20
239.1164984211237
 30
0.0
 10
856.8589814481116
 20
239.5650498533032
 30
0.0
 10
856.8589814481116
 20
239.5650498533032
 30
0.0
 10
856.8589814481116
 20
239.5650498533032
 30
0.0
 10
855.699017798228
 20
239.5650498533032
 30
0.0
 10
855.699017798228
 20
239.5650498533032
 30
0.0
  0
HATCH
  5
3BD
330
354
100
AcDbEntity
  8
Layer 1
 62
     7
100
AcDbHatch
 10
0.0
 20
0.0
 30
0.0
210
0.0
220
0.0
230
1.0
  2
SOLID
 70
     1
 71
     0
 91
        2
 92
        1
 93
        1
 72
     4
 94
        3
 73
     0
 74
     1
 95
       47
 96
       43
 40
0.0
 40
0.0
 40
0.0
 40
0.0
 40
1.0
 40
1.0
 40
1.0
 40
2.0
 40
2.0
 40
2.0
 40
3.0
 40
3.0
 40
3.0
 40
4.0
 40
4.0
 40
4.0
 40
5.0
 40
5.0
 40
5.0
 40
6.0
 40
6.0
 40
6.0
 40
7.0
 40
7.0
 40
7.0
 40
8.0
 40
8.0
 40
8.0
 40
9.0
 40
9.0
 40
9.0
 40
10.0
 40
10.0
 40
10.0
 40
11.0
 40
11.0
 40
11.0
 40
12.0
 40
12.0
 40
12.0
 40
13.0
 40
13.0
 40
13.0
 40
14.0
 40
14.0
 40
14.0
 40
14.0
 10
857.4687633490009
 20
240.4711099659239
 10
857.4687633490009
 20
240.4711099659239
 10
857.4687633490009
 20
237.6430310820823
 10
857.4687633490009
 20
237.6430310820823
 10
857.4687633490009
 20
237.6430310820823
 10
856.8589814481116
 20
237.6430310820823
 10
856.8589814481116
 20
237.6430310820823
 10
856.8589814481116
 20
237.6430310820823
 10
856.8589814481116
 20
238.0409396106287
 10
856.8589814481116
 20
238.0409396106287
 10
856.5289413006248
 20
237.7108994631417
 10
856.215437611467
 20
237.5923881784491
 10
855.6566431237595
 20
237.5923881784491
 10
855.0809676681743
 20
237.5923881784491
 10
854.767808488565
 20
237.6936739857155
 10
854.4797985059981
 20
237.9734157391178
 10
854.2679251336552
 20
238.176331863199
 10
854.1662948168404
 20
238.4898355523567
 10
854.1662948168404
 20
238.8198756998437
 10
854.1662948168404
 20
239.5567816241386
 10
854.6830591396279
 20
240.0222140241958
 10
855.6142684492909
 20
240.0222140241958
 10
855.6142684492909
 20
240.0222140241958
 10
856.8589814481116
 20
240.0222140241958
 10
856.8589814481116
 20
240.0222140241958
 10
856.8589814481116
 20
240.0222140241958
 10
856.8589814481116
 20
240.4204670622907
 10
856.8589814481116
 20
240.4204670622907
 10
856.8589814481116
 20
241.0216362244668
 10
856.5627032363802
 20
241.334795404076
 10
855.7920353763299
 20
241.334795404076
 10
855.2673473339263
 20
241.334795404076
 10
854.9962183192371
 20
241.1994031515057
 10
854.7423147819742
 20
240.8521375265925
 10
854.7423147819742
 20
240.8521375265925
 10
854.3271807760016
 20
241.2331650872612
 10
854.3271807760016
 20
241.2331650872612
 10
854.6913273687925
 20
241.7158229647447
 10
855.1147296039297
 20
241.8598279560281
 10
855.8006481150429
 20
241.8598279560281
 10
856.9268498291711
 20
241.8598279560281
 10
857.4687633490009
 20
241.3685573398315
 10
857.4687633490009
 20
240.4711099659239
 97
        0
 92
        1
 93
        1
 72
     4
 94
        3
 73
     0
 74
     1
 95
       23
 96
       19
 40
0.0
 40
0.0
 40
0.0
 40
0.0
 40
1.0
 40
1.0
 40
1.0
 40
2.0
 40
2.0
 40
2.0
 40
3.0
 40
3.0
 40
3.0
 40
4.0
 40
4.0
 40
4.0
 40
5.0
 40
5.0
 40
5.0
 40
6.0
 40
6.0
 40
6.0
 40
6.0
 10
855.699017798228
 20
239.5650498533032
 10
855.0723549294611
 20
239.5650498533032
 10
854.7591957498519
 20
239.3194145452049
 10
854.7591957498519
 20
238.8284884385568
 10
854.7591957498519
 20
238.3458305610733
 10
855.0554739615834
 20
238.1170762208527
 10
855.7245115048189
 20
238.1170762208527
 10
856.0717771297321
 20
238.1170762208527
 10
856.3763235706282
 20
238.1511826661567
 10
856.6474525853173
 20
238.3964734647064
 10
856.7914575766008
 20
238.5322102268253
 10
856.8589814481116
 20
238.7692327962105
 10
856.8589814481116
 20
239.1164984211237
 10
856.8589814481116
 20
239.1164984211237
 10
856.8589814481116
 20
239.5650498533032
 10
856.8589814481116
 20
239.5650498533032
 10
856.8589814481116
 20
239.5650498533032
 10
855.699017798228
 20
239.5650498533032
 10
855.699017798228
 20
239.5650498533032
 97
        0
 75
     2
 76
     1
 98
        0
  0
SPLINE
  5
3BE
330
354
100
AcDbEntity
  8
Layer 1
370
     0
100
AcDbSpline
210
0.0
220
0.0
230
1.0
 70
    11
 71
     3
 72
    38
 73
    34
 74
     0
 42
0.0000000001
 43
0.0000000001
 12
1.0
 22
0.0
 32
0.0
 13
1.0
 23
0.0
 33
0.0
 40
0.0
 40
0.0
 40
0.0
 40
0.0
 40
1.0
 40
1.0
 40
1.0
 40
2.0
 40
2.0
 40
2.0
 40
3.0
 40
3.0
 40
3.0
 40
4.0
 40
4.0
 40
4.0
 40
5.0
 40
5.0
 40
5.0
 40
6.0
 40
6.0
 40
6.0
 40
7.0
 40
7.0
 40
7.0
 40
8.0
 40
8.0
 40
8.0
 40
9.0
 40
9.0
 40
9.0
 40
10.0
 40
10.0
 40
10.0
 40
11.0
 40
11.0
 40
11.0
 40
11.0
 10
861.752739584909
 20
241.4956813632372
 30
0.0
 10
862.1678735908816
 20
241.0808918668131
 30
0.0
 10
862.2608911689834
 20
240.3949733556999
 30
0.0
 10
862.2608911689834
 20
239.7259358124644
 30
0.0
 10
862.2608911689834
 20
239.0572427787774
 30
0.0
 10
862.1678735908816
 20
238.3795924968287
 30
0.0
 10
861.752739584909
 20
237.9561902616915
 30
0.0
 10
861.5325979834016
 20
237.7360486601841
 30
0.0
 10
861.1687959001592
 20
237.5923881784491
 30
0.0
 10
860.7367809263089
 20
237.5923881784491
 30
0.0
 10
860.2796167554162
 20
237.5923881784491
 30
0.0
 10
859.9068574239122
 20
237.7022867244286
 30
0.0
 10
859.5599363085475
 20
238.1343016982789
 30
0.0
 10
859.5599363085475
 20
238.1343016982789
 30
0.0
 10
859.5599363085475
 20
235.7802679532077
 30
0.0
 10
859.5599363085475
 20
235.7802679532077
 30
0.0
 10
859.5599363085475
 20
235.7802679532077
 30
0.0
 10
858.9501544076584
 20
235.7802679532077
 30
0.0
 10
858.9501544076584
 20
235.7802679532077
 30
0.0
 10
858.9501544076584
 20
235.7802679532077
 30
0.0
 10
858.9501544076584
 20
241.8088405428464
 30
0.0
 10
858.9501544076584
 20
241.8088405428464
 30
0.0
 10
858.9501544076584
 20
241.8088405428464
 30
0.0
 10
859.5599363085475
 20
241.8088405428464
 30
0.0
 10
859.5599363085475
 20
241.8088405428464
 30
0.0
 10
859.5599363085475
 20
241.8088405428464
 30
0.0
 10
859.5599363085475
 20
241.3179144361983
 30
0.0
 10
859.5599363085475
 20
241.3179144361983
 30
0.0
 10
859.9068574239122
 20
241.7495849005001
 30
0.0
 10
860.2710040167032
 20
241.8598279560281
 30
0.0
 10
860.7367809263089
 20
241.8598279560281
 30
0.0
 10
861.1687959001592
 20
241.8598279560281
 30
0.0
 10
861.5325979834016
 20
241.7158229647447
 30
0.0
 10
861.752739584909
 20
241.4956813632372
 30
0.0
  0
SPLINE
  5
3BF
330
354
100
AcDbEntity
  8
Layer 1
370
     0
100
AcDbSpline
210
0.0
220
0.0
230
1.0
 70
    11
 71
     3
 72
    17
 73
    13
 74
     0
 42
0.0000000001
 43
0.0000000001
 12
1.0
 22
0.0
 32
0.0
 13
1.0
 23
0.0
 33
0.0
 40
0.0
 40
0.0
 40
0.0
 40
0.0
 40
1.0
 40
1.0
 40
1.0
 40
2.0
 40
2.0
 40
2.0
 40
3.0
 40
3.0
 40
3.0
 40
4.0
 40
4.0
 40
4.0
 40
4.0
 10
859.5599363085475
 20
239.7259358124644
 30
0.0
 10
859.5599363085475
 20
238.9132377874939
 30
0.0
 10
859.6953285611179
 20
238.1343016982789
 30
0.0
 10
860.6096569029032
 20
238.1343016982789
 30
0.0
 10
861.5157170155239
 20
238.1343016982789
 30
0.0
 10
861.6511092680942
 20
238.9132377874939
 30
0.0
 10
861.6511092680942
 20
239.7259358124644
 30
0.0
 10
861.6511092680942
 20
240.5389783469833
 30
0.0
 10
861.5157170155239
 20
241.3179144361983
 30
0.0
 10
860.6096569029032
 20
241.3179144361983
 30
0.0
 10
859.6953285611179
 20
241.3179144361983
 30
0.0
 10
859.5599363085475
 20
240.5389783469833
 30
0.0
 10
859.5599363085475
 20
239.7259358124644
 30
0.0
  0
HATCH
  5
3C0
330
354
100
AcDbEntity
  8
Layer 1
 62
     7
100
AcDbHatch
 10
0.0
 20
0.0
 30
0.0
210
0.0
220
0.0
230
1.0
  2
SOLID
 70
     1
 71
     0
 91
        2
 92
        1
 93
        1
 72
     4
 94
        3
 73
     0
 74
     1
 95
       38
 96
       34
 40
0.0
 40
0.0
 40
0.0
 40
0.0
 40
1.0
 40
1.0
 40
1.0
 40
2.0
 40
2.0
 40
2.0
 40
3.0
 40
3.0
 40
3.0
 40
4.0
 40
4.0
 40
4.0
 40
5.0
 40
5.0
 40
5.0
 40
6.0
 40
6.0
 40
6.0
 40
7.0
 40
7.0
 40
7.0
 40
8.0
 40
8.0
 40
8.0
 40
9.0
 40
9.0
 40
9.0
 40
10.0
 40
10.0
 40
10.0
 40
11.0
 40
11.0
 40
11.0
 40
11.0
 10
861.752739584909
 20
241.4956813632372
 10
862.1678735908816
 20
241.0808918668131
 10
862.2608911689834
 20
240.3949733556999
 10
862.2608911689834
 20
239.7259358124644
 10
862.2608911689834
 20
239.0572427787774
 10
862.1678735908816
 20
238.3795924968287
 10
861.752739584909
 20
237.9561902616915
 10
861.5325979834016
 20
237.7360486601841
 10
861.1687959001592
 20
237.5923881784491
 10
860.7367809263089
 20
237.5923881784491
 10
860.2796167554162
 20
237.5923881784491
 10
859.9068574239122
 20
237.7022867244286
 10
859.5599363085475
 20
238.1343016982789
 10
859.5599363085475
 20
238.1343016982789
 10
859.5599363085475
 20
235.7802679532077
 10
859.5599363085475
 20
235.7802679532077
 10
859.5599363085475
 20
235.7802679532077
 10
858.9501544076584
 20
235.7802679532077
 10
858.9501544076584
 20
235.7802679532077
 10
858.9501544076584
 20
235.7802679532077
 10
858.9501544076584
 20
241.8088405428464
 10
858.9501544076584
 20
241.8088405428464
 10
858.9501544076584
 20
241.8088405428464
 10
859.5599363085475
 20
241.8088405428464
 10
859.5599363085475
 20
241.8088405428464
 10
859.5599363085475
 20
241.8088405428464
 10
859.5599363085475
 20
241.3179144361983
 10
859.5599363085475
 20
241.3179144361983
 10
859.9068574239122
 20
241.7495849005001
 10
860.2710040167032
 20
241.8598279560281
 10
860.7367809263089
 20
241.8598279560281
 10
861.1687959001592
 20
241.8598279560281
 10
861.5325979834016
 20
241.7158229647447
 10
861.752739584909
 20
241.4956813632372
 97
        0
 92
        1
 93
        1
 72
     4
 94
        3
 73
     0
 74
     1
 95
       17
 96
       13
 40
0.0
 40
0.0
 40
0.0
 40
0.0
 40
1.0
 40
1.0
 40
1.0
 40
2.0
 40
2.0
 40
2.0
 40
3.0
 40
3.0
 40
3.0
 40
4.0
 40
4.0
 40
4.0
 40
4.0
 10
859.5599363085475
 20
239.7259358124644
 10
859.5599363085475
 20
238.9132377874939
 10
859.6953285611179
 20
238.1343016982789
 10
860.6096569029032
 20
238.1343016982789
 10
861.5157170155239
 20
238.1343016982789
 10
861.6511092680942
 20
238.9132377874939
 10
861.6511092680942
 20
239.7259358124644
 10
861.6511092680942
 20
240.5389783469833
 10
861.5157170155239
 20
241.3179144361983
 10
860.6096569029032
 20
241.3179144361983
 10
859.6953285611179
 20
241.3179144361983
 10
859.5599363085475
 20
240.5389783469833
 10
859.5599363085475
 20
239.7259358124644
 97
        0
 75
     2
 76
     1
 98
        0
  0
SPLINE
  5
3C1
330
354
100
AcDbEntity
  8
Layer 1
370
     0
100
AcDbSpline
210
0.0
220
0.0
230
1.0
 70
    11
 71
     3
 72
    53
 73
    49
 74
     0
 42
0.0000000001
 43
0.0000000001
 12
1.0
 22
0.0
 32
0.0
 13
1.0
 23
0.0
 33
0.0
 40
0.0
 40
0.0
 40
0.0
 40
0.0
 40
1.0
 40
1.0
 40
1.0
 40
2.0
 40
2.0
 40
2.0
 40
3.0
 40
3.0
 40
3.0
 40
4.0
 40
4.0
 40
4.0
 40
5.0
 40
5.0
 40
5.0
 40
6.0
 40
6.0
 40
6.0
 40
7.0
 40
7.0
 40
7.0
 40
8.0
 40
8.0
 40
8.0
 40
9.0
 40
9.0
 40
9.0
 40
10.0
 40
10.0
 40
10.0
 40
11.0
 40
11.0
 40
11.0
 40
12.0
 40
12.0
 40
12.0
 40
13.0
 40
13.0
 40
13.0
 40
14.0
 40
14.0
 40
14.0
 40
15.0
 40
15.0
 40
15.0
 40
16.0
 40
16.0
 40
16.0
 40
16.0
 10
866.384325955279
 20
241.4109320143
 30
0.0
 10
866.384325955279
 20
241.4109320143
 30
0.0
 10
865.9860729171841
 20
241.0130234857537
 30
0.0
 10
865.9860729171841
 20
241.0130234857537
 30
0.0
 10
865.6897947054526
 20
241.2417778259743
 30
0.0
 10
865.3087671447839
 20
241.3434081427892
 30
0.0
 10
864.8770966804822
 20
241.3434081427892
 30
0.0
 10
864.2673147795929
 20
241.3434081427892
 30
0.0
 10
863.9455428612706
 20
241.0891600959777
 30
0.0
 10
863.9455428612706
 20
240.6574896316759
 30
0.0
 10
863.9455428612706
 20
240.2847303001719
 30
0.0
 10
864.1742972014912
 20
240.0986951439684
 30
0.0
 10
864.6907170147301
 20
240.0477077307867
 30
0.0
 10
864.6907170147301
 20
240.0477077307867
 30
0.0
 10
865.3425290805394
 20
239.9884520884404
 30
0.0
 10
865.3425290805394
 20
239.9884520884404
 30
0.0
 10
866.0708222661212
 20
239.9209282169295
 30
0.0
 10
866.5703611114825
 20
239.6497992022403
 30
0.0
 10
866.5703611114825
 20
238.8622503743122
 30
0.0
 10
866.5703611114825
 20
238.0578205785064
 30
0.0
 10
865.8930553390824
 20
237.5923881784491
 30
0.0
 10
864.8770966804822
 20
237.5923881784491
 30
0.0
 10
864.165684462778
 20
237.5923881784491
 30
0.0
 10
863.6155027137837
 20
237.7532741376103
 30
0.0
 10
863.1666067720556
 20
238.1935573406252
 30
0.0
 10
863.1666067720556
 20
238.1935573406252
 30
0.0
 10
863.5731280393151
 20
238.5997340983362
 30
0.0
 10
863.5731280393151
 20
238.5997340983362
 30
0.0
 10
863.8948999576374
 20
238.2610812121361
 30
0.0
 10
864.3520641285301
 20
238.1170762208527
 30
0.0
 10
864.868483941769
 20
238.1170762208527
 30
0.0
 10
865.5626706820469
 20
238.1170762208527
 30
0.0
 10
865.9778046880194
 20
238.362711528951
 30
0.0
 10
865.9778046880194
 20
238.8539821451476
 30
0.0
 10
865.9778046880194
 20
239.2263969671031
 30
0.0
 10
865.7745440543897
 20
239.4210448620198
 30
0.0
 10
865.2832734381931
 20
239.4634195364883
 30
0.0
 10
865.2832734381931
 20
239.4634195364883
 30
0.0
 10
864.5976994366284
 20
239.5226751788346
 30
0.0
 10
864.5976994366284
 20
239.5226751788346
 30
0.0
 10
863.7846569021094
 20
239.590543559894
 30
0.0
 10
863.3529864378077
 20
239.9460774139718
 30
0.0
 10
863.3529864378077
 20
240.6406086637982
 30
0.0
 10
863.3529864378077
 20
241.4026637851354
 30
0.0
 10
863.9879175357391
 20
241.8598279560281
 30
0.0
 10
864.8853649096468
 20
241.8598279560281
 30
0.0
 10
865.4865340718228
 20
241.8598279560281
 30
0.0
 10
866.0032983946103
 20
241.7158229647447
 30
0.0
 10
866.384325955279
 20
241.4109320143
 30
0.0
  0
HATCH
  5
3C2
330
354
100
AcDbEntity
  8
Layer 1
 62
     7
100
AcDbHatch
 10
0.0
 20
0.0
 30
0.0
210
0.0
220
0.0
230
1.0
  2
SOLID
 70
     1
 71
     0
 91
        1
 92
        1
 93
        1
 72
     4
 94
        3
 73
     0
 74
     1
 95
       53
 96
       49
 40
0.0
 40
0.0
 40
0.0
 40
0.0
 40
1.0
 40
1.0
 40
1.0
 40
2.0
 40
2.0
 40
2.0
 40
3.0
 40
3.0
 40
3.0
 40
4.0
 40
4.0
 40
4.0
 40
5.0
 40
5.0
 40
5.0
 40
6.0
 40
6.0
 40
6.0
 40
7.0
 40
7.0
 40
7.0
 40
8.0
 40
8.0
 40
8.0
 40
9.0
 40
9.0
 40
9.0
 40
10.0
 40
10.0
 40
10.0
 40
11.0
 40
11.0
 40
11.0
 40
12.0
 40
12.0
 40
12.0
 40
13.0
 40
13.0
 40
13.0
 40
14.0
 40
14.0
 40
14.0
 40
15.0
 40
15.0
 40
15.0
 40
16.0
 40
16.0
 40
16.0
 40
16.0
 10
866.384325955279
 20
241.4109320143
 10
866.384325955279
 20
241.4109320143
 10
865.9860729171841
 20
241.0130234857537
 10
865.9860729171841
 20
241.0130234857537
 10
865.6897947054526
 20
241.2417778259743
 10
865.3087671447839
 20
241.3434081427892
 10
864.8770966804822
 20
241.3434081427892
 10
864.2673147795929
 20
241.3434081427892
 10
863.9455428612706
 20
241.0891600959777
 10
863.9455428612706
 20
240.6574896316759
 10
863.9455428612706
 20
240.2847303001719
 10
864.1742972014912
 20
240.0986951439684
 10
864.6907170147301
 20
240.0477077307867
 10
864.6907170147301
 20
240.0477077307867
 10
865.3425290805394
 20
239.9884520884404
 10
865.3425290805394
 20
239.9884520884404
 10
866.0708222661212
 20
239.9209282169295
 10
866.5703611114825
 20
239.6497992022403
 10
866.5703611114825
 20
238.8622503743122
 10
866.5703611114825
 20
238.0578205785064
 10
865.8930553390824
 20
237.5923881784491
 10
864.8770966804822
 20
237.5923881784491
 10
864.165684462778
 20
237.5923881784491
 10
863.6155027137837
 20
237.7532741376103
 10
863.1666067720556
 20
238.1935573406252
 10
863.1666067720556
 20
238.1935573406252
 10
863.5731280393151
 20
238.5997340983362
 10
863.5731280393151
 20
238.5997340983362
 10
863.8948999576374
 20
238.2610812121361
 10
864.3520641285301
 20
238.1170762208527
 10
864.868483941769
 20
238.1170762208527
 10
865.5626706820469
 20
238.1170762208527
 10
865.9778046880194
 20
238.362711528951
 10
865.9778046880194
 20
238.8539821451476
 10
865.9778046880194
 20
239.2263969671031
 10
865.7745440543897
 20
239.4210448620198
 10
865.2832734381931
 20
239.4634195364883
 10
865.2832734381931
 20
239.4634195364883
 10
864.5976994366284
 20
239.5226751788346
 10
864.5976994366284
 20
239.5226751788346
 10
863.7846569021094
 20
239.590543559894
 10
863.3529864378077
 20
239.9460774139718
 10
863.3529864378077
 20
240.6406086637982
 10
863.3529864378077
 20
241.4026637851354
 10
863.9879175357391
 20
241.8598279560281
 10
864.8853649096468
 20
241.8598279560281
 10
865.4865340718228
 20
241.8598279560281
 10
866.0032983946103
 20
241.7158229647447
 10
866.384325955279
 20
241.4109320143
 97
        0
 75
     2
 76
     1
 98
        0
  0
ENDBLK
  5
357
330
354
100
AcDbEntity
  8
0
100
AcDbBlockEnd
  0
ENDSEC
  0
SECTION
  2
ENTITIES
  0
INSERT
  5
42
330
1F
100
AcDbEntity
  8
Layer 1
100
AcDbBlockReference
  2
block 2
 10
0.0
 20
0.0
 30
0.0
  0
INSERT
  5
84
330
1F
100
AcDbEntity
  8
Layer 1
100
AcDbBlockReference
  2
block 3
 10
0.0
 20
0.0
 30
0.0
  0
INSERT
  5
C3
330
1F
100
AcDbEntity
  8
Layer 1
100
AcDbBlockReference
  2
block 4
 10
0.0
 20
0.0
 30
0.0
  0
INSERT
  5
EC
330
1F
100
AcDbEntity
  8
Layer 1
100
AcDbBlockReference
  2
block 5
 10
0.0
 20
0.0
 30
0.0
  0
INSERT
  5
108
330
1F
100
AcDbEntity
  8
Layer 1
100
AcDbBlockReference
  2
block 6
 10
0.0
 20
0.0
 30
0.0
  0
INSERT
  5
1D3
330
1F
100
AcDbEntity
  8
Layer 1
100
AcDbBlockReference
  2
block 7
 10
0.0
 20
0.0
 30
0.0
  0
INSERT
  5
1F3
330
1F
100
AcDbEntity
  8
Layer 1
100
AcDbBlockReference
  2
block 8
 10
0.0
 20
0.0
 30
0.0
  0
INSERT
  5
213
330
1F
100
AcDbEntity
  8
Layer 1
100
AcDbBlockReference
  2
block 9
 10
0.0
 20
0.0
 30
0.0
  0
INSERT
  5
343
330
1F
100
AcDbEntity
  8
Layer 1
100
AcDbBlockReference
  2
block 10
 10
0.0
 20
0.0
 30
0.0
  0
ENDSEC
  0
SECTION
  2
OBJECTS
  0
DICTIONARY
  5
C
330
0
100
AcDbDictionary
281
     1
  3
ACAD_GROUP
350
D
  3
ACAD_LAYOUT
350
1A
  3
ACAD_MATERIAL
350
3B
  3
ACAD_MLEADERSTYLE
350
3C5
  3
ACAD_MLINESTYLE
350
17
  3
ACAD_PLOTSETTINGS
350
19
  3
ACAD_PLOTSTYLENAME
350
E
  3
ACAD_VISUALSTYLE
350
2A
  3
AcDbVariableDictionary
350
3C3
  0
DICTIONARY
  5
D
102
{ACAD_REACTORS
330
C
102
}
330
C
100
AcDbDictionary
281
     1
  0
DICTIONARY
  5
1A
102
{ACAD_REACTORS
330
C
102
}
330
C
100
AcDbDictionary
281
     1
  3
Layout1
350
1E
  3
Layout2
350
26
  3
Model
350
22
  0
DICTIONARY
  5
3B
102
{ACAD_REACTORS
330
C
102
}
330
C
100
AcDbDictionary
281
     1
  3
ByBlock
350
3D
  3
ByLayer
350
3C
  3
Global
350
3E
  0
DICTIONARY
  5
3C5
102
{ACAD_REACTORS
330
C
102
}
330
C
100
AcDbDictionary
281
     1
  0
DICTIONARY
  5
17
102
{ACAD_REACTORS
330
C
102
}
330
C
100
AcDbDictionary
281
     1
  3
Standard
350
18
  0
DICTIONARY
  5
19
102
{ACAD_REACTORS
330
C
102
}
330
C
100
AcDbDictionary
281
     1
  0
ACDBDICTIONARYWDFLT
  5
E
102
{ACAD_REACTORS
330
C
102
}
330
C
100
AcDbDictionary
281
     1
  3
Normal
350
F
100
AcDbDictionaryWithDefault
340
F
  0
DICTIONARY
  5
2A
102
{ACAD_REACTORS
330
C
102
}
330
C
100
AcDbDictionary
281
     1
  3
2dWireframe
350
2F
  3
3D Hidden
350
31
  3
3dWireframe
350
30
  3
Basic
350
32
  3
Brighten
350
36
  3
ColorChange
350
3A
  3
Conceptual
350
34
  3
Dim
350
35
  3
Facepattern
350
39
  3
Flat
350
2B
  3
FlatWithEdges
350
2C
  3
Gouraud
350
2D
  3
GouraudWithEdges
350
2E
  3
Linepattern
350
38
  3
Realistic
350
33
  3
Thicken
350
37
  0
DICTIONARY
  5
3C3
102
{ACAD_REACTORS
330
C
102
}
330
C
100
AcDbDictionary
281
     1
  3
DIMASSOC
350
3C6
  3
HIDETEXT
350
3C7
  0
LAYOUT
  5
1E
102
{ACAD_REACTORS
330
1A
102
}
330
1A
100
AcDbPlotSettings
  1

  2
none_device
  4

  6

 40
0.0
 41
0.0
 42
0.0
 43
0.0
 44
0.0
 45
0.0
 46
0.0
 47
0.0
 48
0.0
 49
0.0
140
0.0
141
0.0
142
1.0
143
1.0
 70
   688
 72
     0
 73
     0
 74
     5
  7

 75
    16
147
1.0
148
0.0
149
0.0
100
AcDbLayout
  1
Layout1
 70
     1
 71
     1
 10
0.0
 20
0.0
 11
12.0
 21
9.0
 12
0.0
 22
0.0
 32
0.0
 14
1.000000000000000E+20
 24
1.000000000000000E+20
 34
1.000000000000000E+20
 15
-1.000000000000000E+20
 25
-1.000000000000000E+20
 35
-1.000000000000000E+20
146
0.0
 13
0.0
 23
0.0
 33
0.0
 16
1.0
 26
0.0
 36
0.0
 17
0.0
 27
1.0
 37
0.0
 76
     0
330
1B
  0
LAYOUT
  5
26
102
{ACAD_REACTORS
330
1A
102
}
330
1A
100
AcDbPlotSettings
  1

  2
none_device
  4

  6

 40
0.0
 41
0.0
 42
0.0
 43
0.0
 44
0.0
 45
0.0
 46
0.0
 47
0.0
 48
0.0
 49
0.0
140
0.0
141
0.0
142
1.0
143
1.0
 70
   688
 72
     0
 73
     0
 74
     5
  7

 75
    16
147
1.0
148
0.0
149
0.0
100
AcDbLayout
  1
Layout2
 70
     1
 71
     2
 10
0.0
 20
0.0
 11
0.0
 21
0.0
 12
0.0
 22
0.0
 32
0.0
 14
0.0
 24
0.0
 34
0.0
 15
0.0
 25
0.0
 35
0.0
146
0.0
 13
0.0
 23
0.0
 33
0.0
 16
1.0
 26
0.0
 36
0.0
 17
0.0
 27
1.0
 37
0.0
 76
     0
330
23
  0
LAYOUT
  5
22
102
{ACAD_REACTORS
330
1A
102
}
330
1A
100
AcDbPlotSettings
  1

  2
none_device
  4

  6

 40
0.0
 41
0.0
 42
0.0
 43
0.0
 44
0.0
 45
0.0
 46
0.0
 47
0.0
 48
0.0
 49
0.0
140
0.0
141
0.0
142
1.0
143
1.0
 70
  1712
 72
     0
 73
     0
 74
     0
  7

 75
     0
147
1.0
148
0.0
149
0.0
100
AcDbLayout
  1
Model
 70
     1
 71
     0
 10
0.0
 20
0.0
 11
12.0
 21
9.0
 12
0.0
 22
0.0
 32
0.0
 14
1.000000000000000E+20
 24
1.000000000000000E+20
 34
1.000000000000000E+20
 15
-1.000000000000000E+20
 25
-1.000000000000000E+20
 35
-1.000000000000000E+20
146
0.0
 13
0.0
 23
0.0
 33
0.0
 16
1.0
 26
0.0
 36
0.0
 17
0.0
 27
1.0
 37
0.0
 76
     0
330
1F
331
29
  0
MATERIAL
  5
3D
102
{ACAD_REACTORS
330
3B
102
}
102
{ACAD_XDICTIONARY
360
3EA
102
}
330
3B
100
AcDbMaterial
  1
ByBlock
  0
MATERIAL
  5
3C
102
{ACAD_REACTORS
330
3B
102
}
102
{ACAD_XDICTIONARY
360
3E8
102
}
330
3B
100
AcDbMaterial
  1
ByLayer
  0
MATERIAL
  5
3E
102
{ACAD_REACTORS
330
3B
102
}
102
{ACAD_XDICTIONARY
360
3EC
102
}
330
3B
100
AcDbMaterial
  1
Global
  0
MLINESTYLE
  5
18
102
{ACAD_REACTORS
330
17
102
}
330
17
100
AcDbMlineStyle
  2
Standard
 70
     0
  3

 62
   256
 51
90.0
 52
90.0
 71
     2
 49
0.5
 62
   256
  6
BYLAYER
 49
-0.5
 62
   256
  6
BYLAYER
  0
ACDBPLACEHOLDER
  5
F
102
{ACAD_REACTORS
330
E
102
}
330
E
  0
VISUALSTYLE
  5
2F
102
{ACAD_REACTORS
330
2A
102
}
102
{ACAD_XDICTIONARY
360
3D0
102
}
330
2A
100
AcDbVisualStyle
  2
2dWireframe
 70
     4
 71
     0
 72
     2
 73
     0
 90
        0
 40
-0.6
 41
-30.0
 62
     5
 63
     7
 74
     1
 91
        4
 64
     7
 65
   257
 75
     1
175
     1
 42
1.0
 92
        0
 66
   257
 43
1.0
 76
     1
 77
     6
 78
     2
 67
     7
 79
     5
170
     0
171
     0
290
     0
174
     0
 93
        1
 44
0.0
173
     0
291
     0
 45
0.0
1001
ACAD
1000
AcDbSavedByObjectVersion
1070
     0
  0
VISUALSTYLE
  5
31
102
{ACAD_REACTORS
330
2A
102
}
102
{ACAD_XDICTIONARY
360
3D4
102
}
330
2A
100
AcDbVisualStyle
  2
3D Hidden
 70
     6
 71
     1
 72
     2
 73
     2
 90
        0
 40
-0.6
 41
-30.0
 62
     5
 63
     7
 74
     2
 91
        2
 64
     7
 65
   257
 75
     2
175
     1
 42
40.0
 92
        0
 66
   257
 43
1.0
 76
     1
 77
     6
 78
     2
 67
     7
 79
     3
170
     0
171
     0
290
     0
174
     0
 93
        1
 44
0.0
173
     0
291
     0
 45
0.0
1001
ACAD
1000
AcDbSavedByObjectVersion
1070
     0
  0
VISUALSTYLE
  5
30
102
{ACAD_REACTORS
330
2A
102
}
102
{ACAD_XDICTIONARY
360
3D2
102
}
330
2A
100
AcDbVisualStyle
  2
3dWireframe
 70
     5
 71
     0
 72
     2
 73
     0
 90
        0
 40
-0.6
 41
-30.0
 62
     5
 63
     7
 74
     1
 91
        4
 64
     7
 65
   257
 75
     1
175
     1
 42
1.0
 92
        0
 66
   257
 43
1.0
 76
     1
 77
     6
 78
     2
 67
     7
 79
     5
170
     0
171
     0
290
     0
174
     0
 93
        1
 44
0.0
173
     0
291
     0
 45
0.0
1001
ACAD
1000
AcDbSavedByObjectVersion
1070
     0
  0
VISUALSTYLE
  5
32
102
{ACAD_REACTORS
330
2A
102
}
102
{ACAD_XDICTIONARY
360
3D6
102
}
330
2A
100
AcDbVisualStyle
  2
Basic
 70
     7
 71
     1
 72
     0
 73
     1
 90
        0
 40
-0.6
 41
-30.0
 62
     5
 63
     7
 74
     0
 91
        4
 64
     7
 65
   257
 75
     1
175
     1
 42
1.0
 92
        8
 66
     7
 43
1.0
 76
     1
 77
     6
 78
     2
 67
     7
 79
     5
170
     0
171
     0
290
     0
174
     0
 93
        1
 44
0.0
173
     0
291
     1
 45
0.0
1001
ACAD
1000
AcDbSavedByObjectVersion
1070
     0
  0
VISUALSTYLE
  5
36
102
{ACAD_REACTORS
330
2A
102
}
102
{ACAD_XDICTIONARY
360
3DE
102
}
330
2A
100
AcDbVisualStyle
  2
Brighten
 70
    12
 71
     2
 72
     2
 73
     0
 90
        0
 40
-0.6
 41
-30.0
 62
     5
 63
     7
 74
     1
 91
        4
 64
     7
 65
   257
 75
     1
175
     1
 42
1.0
 92
        8
 66
     7
 43
1.0
 76
     1
 77
     6
 78
     2
 67
     7
 79
     5
170
     0
171
     0
290
     0
174
     0
 93
        1
 44
50.0
173
     0
291
     1
 45
0.0
1001
ACAD
1000
AcDbSavedByObjectVersion
1070
     0
  0
VISUALSTYLE
  5
3A
102
{ACAD_REACTORS
330
2A
102
}
102
{ACAD_XDICTIONARY
360
3E6
102
}
330
2A
100
AcDbVisualStyle
  2
ColorChange
 70
    16
 71
     2
 72
     2
 73
     3
 90
        0
 40
-0.6
 41
-30.0
 62
     5
 63
     8
 74
     1
 91
        4
 64
     7
 65
   257
 75
     1
175
     1
 42
1.0
 92
        8
 66
     8
 43
1.0
 76
     1
 77
     6
 78
     2
 67
     7
 79
     5
170
     0
171
     0
290
     0
174
     0
 93
        1
 44
0.0
173
     0
291
     1
 45
0.0
1001
ACAD
1000
AcDbSavedByObjectVersion
1070
     0
  0
VISUALSTYLE
  5
34
102
{ACAD_REACTORS
330
2A
102
}
102
{ACAD_XDICTIONARY
360
3DA
102
}
330
2A
100
AcDbVisualStyle
  2
Conceptual
 70
     9
 71
     3
 72
     2
 73
     0
 90
        0
 40
-0.6
 41
-30.0
 62
     5
 63
     7
 74
     2
 91
        2
 64
     7
 65
   257
 75
     1
175
     1
 42
40.0
 92
        8
 66
     7
 43
1.0
 76
     1
 77
     6
 78
     2
 67
     7
 79
     3
170
     0
171
     0
290
     0
174
     0
 93
        1
 44
0.0
173
     0
291
     0
 45
0.0
1001
ACAD
1000
AcDbSavedByObjectVersion
1070
     0
  0
VISUALSTYLE
  5
35
102
{ACAD_REACTORS
330
2A
102
}
102
{ACAD_XDICTIONARY
360
3DC
102
}
330
2A
100
AcDbVisualStyle
  2
Dim
 70
    11
 71
     2
 72
     2
 73
     0
 90
        0
 40
-0.6
 41
-30.0
 62
     5
 63
     7
 74
     1
 91
        4
 64
     7
 65
   257
 75
     1
175
     1
 42
1.0
 92
        8
 66
     7
 43
1.0
 76
     1
 77
     6
 78
     2
 67
     7
 79
     5
170
     0
171
     0
290
     0
174
     0
 93
        1
 44
-50.0
173
     0
291
     1
 45
0.0
1001
ACAD
1000
AcDbSavedByObjectVersion
1070
     0
  0
VISUALSTYLE
  5
39
102
{ACAD_REACTORS
330
2A
102
}
102
{ACAD_XDICTIONARY
360
3E4
102
}
330
2A
100
AcDbVisualStyle
  2
Facepattern
 70
    15
 71
     2
 72
     2
 73
     0
 90
        0
 40
-0.6
 41
-30.0
 62
     5
 63
     7
 74
     1
 91
        4
 64
     7
 65
   257
 75
     1
175
     1
 42
1.0
 92
        8
 66
     7
 43
1.0
 76
     1
 77
     6
 78
     2
 67
     7
 79
     5
170
     0
171
     0
290
     0
174
     0
 93
        1
 44
0.0
173
     0
291
     1
 45
0.0
1001
ACAD
1000
AcDbSavedByObjectVersion
1070
     0
  0
VISUALSTYLE
  5
2B
102
{ACAD_REACTORS
330
2A
102
}
102
{ACAD_XDICTIONARY
360
3C8
102
}
330
2A
100
AcDbVisualStyle
  2
Flat
 70
     0
 71
     2
 72
     1
 73
     1
 90
        2
 40
-0.6
 41
30.0
 62
     5
 63
     7
 74
     0
 91
        4
 64
     7
 65
   257
 75
     1
175
     1
 42
1.0
 92
        8
 66
     7
 43
1.0
 76
     1
 77
     6
 78
     2
 67
     7
 79
     5
170
     0
171
     0
290
     0
174
     0
 93
       13
 44
0.0
173
     0
291
     1
 45
0.0
1001
ACAD
1000
AcDbSavedByObjectVersion
1070
     0
  0
VISUALSTYLE
  5
2C
102
{ACAD_REACTORS
330
2A
102
}
102
{ACAD_XDICTIONARY
360
3CA
102
}
330
2A
100
AcDbVisualStyle
  2
FlatWithEdges
 70
     1
 71
     2
 72
     1
 73
     1
 90
        2
 40
-0.6
 41
30.0
 62
     5
 63
     7
 74
     1
 91
        4
 64
     7
 65
   257
 75
     1
175
     1
 42
1.0
 92
        0
 66
   257
 43
1.0
 76
     1
 77
     6
 78
     2
 67
     7
 79
     5
170
     0
171
     0
290
     0
174
     0
 93
       13
 44
0.0
173
     0
291
     1
 45
0.0
1001
ACAD
1000
AcDbSavedByObjectVersion
1070
     0
  0
VISUALSTYLE
  5
2D
102
{ACAD_REACTORS
330
2A
102
}
102
{ACAD_XDICTIONARY
360
3CC
102
}
330
2A
100
AcDbVisualStyle
  2
Gouraud
 70
     2
 71
     2
 72
     2
 73
     1
 90
        2
 40
-0.6
 41
30.0
 62
     5
 63
     7
 74
     0
 91
        4
 64
     7
 65
   257
 75
     1
175
     1
 42
1.0
 92
        0
 66
     7
 43
1.0
 76
     1
 77
     6
 78
     2
 67
     7
 79
     5
170
     0
171
     0
290
     0
174
     0
 93
       13
 44
0.0
173
     0
291
     1
 45
0.0
1001
ACAD
1000
AcDbSavedByObjectVersion
1070
     0
  0
VISUALSTYLE
  5
2E
102
{ACAD_REACTORS
330
2A
102
}
102
{ACAD_XDICTIONARY
360
3CE
102
}
330
2A
100
AcDbVisualStyle
  2
GouraudWithEdges
 70
     3
 71
     2
 72
     2
 73
     1
 90
        2
 40
-0.6
 41
30.0
 62
     5
 63
     7
 74
     1
 91
        4
 64
     7
 65
   257
 75
     1
175
     1
 42
1.0
 92
        0
 66
   257
 43
1.0
 76
     1
 77
     6
 78
     2
 67
     7
 79
     5
170
     0
171
     0
290
     0
174
     0
 93
       13
 44
0.0
173
     0
291
     1
 45
0.0
1001
ACAD
1000
AcDbSavedByObjectVersion
1070
     0
  0
VISUALSTYLE
  5
38
102
{ACAD_REACTORS
330
2A
102
}
102
{ACAD_XDICTIONARY
360
3E2
102
}
330
2A
100
AcDbVisualStyle
  2
Linepattern
 70
    14
 71
     2
 72
     2
 73
     0
 90
        0
 40
-0.6
 41
-30.0
 62
     5
 63
     7
 74
     1
 91
        4
 64
     7
 65
   257
 75
     7
175
     7
 42
1.0
 92
        8
 66
     7
 43
1.0
 76
     1
 77
     6
 78
     2
 67
     7
 79
     5
170
     0
171
     0
290
     0
174
     0
 93
        1
 44
0.0
173
     0
291
     1
 45
0.0
1001
ACAD
1000
AcDbSavedByObjectVersion
1070
     0
  0
VISUALSTYLE
  5
33
102
{ACAD_REACTORS
330
2A
102
}
102
{ACAD_XDICTIONARY
360
3D8
102
}
330
2A
100
AcDbVisualStyle
  2
Realistic
 70
     8
 71
     2
 72
     2
 73
     0
 90
        0
 40
-0.6
 41
-30.0
 62
     5
 63
     7
 74
     1
 91
        0
 64
     7
 65
   257
 75
     1
175
     1
 42
1.0
 92
        8
 66
     8
 43
1.0
 76
     1
 77
     6
 78
     2
 67
     7
 79
     5
170
     0
171
     0
290
     0
174
     0
 93
       13
 44
0.0
173
     0
291
     0
 45
0.0
1001
ACAD
1000
AcDbSavedByObjectVersion
1070
     0
  0
VISUALSTYLE
  5
37
102
{ACAD_REACTORS
330
2A
102
}
102
{ACAD_XDICTIONARY
360
3E0
102
}
330
2A
100
AcDbVisualStyle
  2
Thicken
 70
    13
 71
     2
 72
     2
 73
     0
 90
        0
 40
-0.6
 41
-30.0
 62
     5
 63
     7
 74
     1
 91
        4
 64
     7
 65
   257
 75
     1
175
     1
 42
1.0
 92
       12
 66
     7
 43
1.0
 76
     1
 77
     6
 78
     2
 67
     7
 79
     5
170
     0
171
     0
290
     0
174
     0
 93
        1
 44
0.0
173
     0
291
     1
 45
0.0
1001
ACAD
1000
AcDbSavedByObjectVersion
1070
     0
  0
DICTIONARYVAR
  5
3C6
102
{ACAD_REACTORS
330
3C3
102
}
330
3C3
100
DictionaryVariables
280
     0
  1
2
  0
DICTIONARYVAR
  5
3C7
102
{ACAD_REACTORS
330
3C3
102
}
330
3C3
100
DictionaryVariables
280
     0
  1
1
  0
DICTIONARY
  5
3EA
330
3D
100
AcDbDictionary
280
     1
281
     1
  3
ACAD_XREC_ROUNDTRIP
360
3EB
  0
DICTIONARY
  5
3E8
330
3C
100
AcDbDictionary
280
     1
281
     1
  3
ACAD_XREC_ROUNDTRIP
360
3E9
  0
DICTIONARY
  5
3EC
330
3E
100
AcDbDictionary
280
     1
281
     1
  3
ACAD_XREC_ROUNDTRIP
360
3ED
  0
DICTIONARY
  5
3D0
330
2F
100
AcDbDictionary
280
     1
281
     1
  3
ACAD_XREC_ROUNDTRIP
360
3D1
  0
DICTIONARY
  5
3D4
330
31
100
AcDbDictionary
280
     1
281
     1
  3
ACAD_XREC_ROUNDTRIP
360
3D5
  0
DICTIONARY
  5
3D2
330
30
100
AcDbDictionary
280
     1
281
     1
  3
ACAD_XREC_ROUNDTRIP
360
3D3
  0
DICTIONARY
  5
3D6
330
32
100
AcDbDictionary
280
     1
281
     1
  3
ACAD_XREC_ROUNDTRIP
360
3D7
  0
DICTIONARY
  5
3DE
330
36
100
AcDbDictionary
280
     1
281
     1
  3
ACAD_XREC_ROUNDTRIP
360
3DF
  0
DICTIONARY
  5
3E6
330
3A
100
AcDbDictionary
280
     1
281
     1
  3
ACAD_XREC_ROUNDTRIP
360
3E7
  0
DICTIONARY
  5
3DA
330
34
100
AcDbDictionary
280
     1
281
     1
  3
ACAD_XREC_ROUNDTRIP
360
3DB
  0
DICTIONARY
  5
3DC
330
35
100
AcDbDictionary
280
     1
281
     1
  3
ACAD_XREC_ROUNDTRIP
360
3DD
  0
DICTIONARY
  5
3E4
330
39
100
AcDbDictionary
280
     1
281
     1
  3
ACAD_XREC_ROUNDTRIP
360
3E5
  0
DICTIONARY
  5
3C8
330
2B
100
AcDbDictionary
280
     1
281
     1
  3
ACAD_XREC_ROUNDTRIP
360
3C9
  0
DICTIONARY
  5
3CA
330
2C
100
AcDbDictionary
280
     1
281
     1
  3
ACAD_XREC_ROUNDTRIP
360
3CB
  0
DICTIONARY
  5
3CC
330
2D
100
AcDbDictionary
280
     1
281
     1
  3
ACAD_XREC_ROUNDTRIP
360
3CD
  0
DICTIONARY
  5
3CE
330
2E
100
AcDbDictionary
280
     1
281
     1
  3
ACAD_XREC_ROUNDTRIP
360
3CF
  0
DICTIONARY
  5
3E2
330
38
100
AcDbDictionary
280
     1
281
     1
  3
ACAD_XREC_ROUNDTRIP
360
3E3
  0
DICTIONARY
  5
3D8
330
33
100
AcDbDictionary
280
     1
281
     1
  3
ACAD_XREC_ROUNDTRIP
360
3D9
  0
DICTIONARY
  5
3E0
330
37
100
AcDbDictionary
280
     1
281
     1
  3
ACAD_XREC_ROUNDTRIP
360
3E1
  0
XRECORD
  5
3EB
102
{ACAD_REACTORS
330
3EA
102
}
330
3EA
100
AcDbXrecord
280
     1
102
MATERIAL
148
0.0
149
0.0
149
0.0
 93
        0
 94
      127
282
     0
 72
     1
 77
     1
171
     1
175
     1
179
     1
273
     0
  0
XRECORD
  5
3E9
102
{ACAD_REACTORS
330
3E8
102
}
330
3E8
100
AcDbXrecord
280
     1
102
MATERIAL
148
0.0
149
0.0
149
0.0
 93
        0
 94
      127
282
     0
 72
     1
 77
     1
171
     1
175
     1
179
     1
273
     0
  0
XRECORD
  5
3ED
102
{ACAD_REACTORS
330
3EC
102
}
330
3EC
100
AcDbXrecord
280
     1
102
MATERIAL
148
0.0
149
0.0
149
0.0
 93
        0
 94
      127
282
     0
 72
     1
 77
     1
171
     1
175
     1
179
     1
273
     0
  0
XRECORD
  5
3D1
102
{ACAD_REACTORS
330
3D0
102
}
330
3D0
100
AcDbXrecord
280
     1
102
RTVSPropertyOp0
 70
     1
102
RTVSPropertyOp1
 70
     1
102
RTVSPropertyOp2
 70
     1
102
RTVSPropertyOp3
 70
     1
102
RTVSPropertyOp4
 70
     1
102
RTVSPropertyOp5
 70
     1
102
RTVSPropertyOp6
 70
     1
102
RTVSPropertyOp7
 70
     1
102
RTVSPropertyOp8
 70
     1
102
RTVSPropertyOp9
 70
     1
102
RTVSPropertyOp10
 70
     1
102
RTVSPropertyOp11
 70
     1
102
RTVSPropertyOp12
 70
     1
102
RTVSPropertyOp13
 70
     1
102
RTVSPropertyOp14
 70
     1
102
RTVSPropertyOp15
 70
     1
102
RTVSPropertyOp16
 70
     1
102
RTVSPropertyOp17
 70
     1
102
RTVSPropertyOp18
 70
     1
102
RTVSPropertyOp19
 70
     1
102
RTVSPropertyOp20
 70
     1
102
RTVSPropertyOp21
 70
     1
102
RTVSPropertyOp22
 70
     1
102
RTVSPropertyOp23
 70
     1
102
RTVSPropertyOp24
 70
     1
102
RTVSPropertyOp25
 70
     1
102
RTVSPropertyOp26
 70
     1
102
RTVSPropertyOp27
 70
     1
102
RTVSPropertyOp28
 70
     1
102
RTVSPropertyOp29
 70
     1
102
RTVSPropertyOp30
 70
     1
102
RTVSPropertyOp31
 70
     1
102
RTVSPropertyOp32
 70
     1
  0
XRECORD
  5
3D5
102
{ACAD_REACTORS
330
3D4
102
}
330
3D4
100
AcDbXrecord
280
     1
102
RTVSPropertyOp0
 70
     1
102
RTVSPropertyOp1
 70
     1
102
RTVSPropertyOp2
 70
     1
102
RTVSPropertyOp3
 70
     1
102
RTVSPropertyOp4
 70
     1
102
RTVSPropertyOp5
 70
     1
102
RTVSPropertyOp6
 70
     1
102
RTVSPropertyOp7
 70
     1
102
RTVSPropertyOp8
 70
     1
102
RTVSPropertyOp9
 70
     1
102
RTVSPropertyOp10
 70
     1
102
RTVSPropertyOp11
 70
     1
102
RTVSPropertyOp12
 70
     1
102
RTVSPropertyOp13
 70
     1
102
RTVSPropertyOp14
 70
     1
102
RTVSPropertyOp15
 70
     1
102
RTVSPropertyOp16
 70
     1
102
RTVSPropertyOp17
 70
     1
102
RTVSPropertyOp18
 70
     1
102
RTVSPropertyOp19
 70
     1
102
RTVSPropertyOp20
 70
     1
102
RTVSPropertyOp21
 70
     1
102
RTVSPropertyOp22
 70
     1
102
RTVSPropertyOp23
 70
     1
102
RTVSPropertyOp24
 70
     1
102
RTVSPropertyOp25
 70
     1
102
RTVSPropertyOp26
 70
     1
102
RTVSPropertyOp27
 70
     1
102
RTVSPropertyOp28
 70
     1
102
RTVSPropertyOp29
 70
     1
102
RTVSPropertyOp30
 70
     1
102
RTVSPropertyOp31
 70
     1
102
RTVSPropertyOp32
 70
     1
  0
XRECORD
  5
3D3
102
{ACAD_REACTORS
330
3D2
102
}
330
3D2
100
AcDbXrecord
280
     1
102
RTVSPropertyOp0
 70
     1
102
RTVSPropertyOp1
 70
     1
102
RTVSPropertyOp2
 70
     1
102
RTVSPropertyOp3
 70
     1
102
RTVSPropertyOp4
 70
     1
102
RTVSPropertyOp5
 70
     1
102
RTVSPropertyOp6
 70
     1
102
RTVSPropertyOp7
 70
     1
102
RTVSPropertyOp8
 70
     1
102
RTVSPropertyOp9
 70
     1
102
RTVSPropertyOp10
 70
     1
102
RTVSPropertyOp11
 70
     1
102
RTVSPropertyOp12
 70
     1
102
RTVSPropertyOp13
 70
     1
102
RTVSPropertyOp14
 70
     1
102
RTVSPropertyOp15
 70
     1
102
RTVSPropertyOp16
 70
     1
102
RTVSPropertyOp17
 70
     1
102
RTVSPropertyOp18
 70
     1
102
RTVSPropertyOp19
 70
     1
102
RTVSPropertyOp20
 70
     1
102
RTVSPropertyOp21
 70
     1
102
RTVSPropertyOp22
 70
     1
102
RTVSPropertyOp23
 70
     1
102
RTVSPropertyOp24
 70
     1
102
RTVSPropertyOp25
 70
     1
102
RTVSPropertyOp26
 70
     1
102
RTVSPropertyOp27
 70
     1
102
RTVSPropertyOp28
 70
     1
102
RTVSPropertyOp29
 70
     1
102
RTVSPropertyOp30
 70
     1
102
RTVSPropertyOp31
 70
     1
102
RTVSPropertyOp32
 70
     1
  0
XRECORD
  5
3D7
102
{ACAD_REACTORS
330
3D6
102
}
330
3D6
100
AcDbXrecord
280
     1
102
RTVSPropertyOp0
 70
     1
102
RTVSPropertyOp1
 70
     1
102
RTVSPropertyOp2
 70
     1
102
RTVSPropertyOp3
 70
     1
102
RTVSPropertyOp4
 70
     1
102
RTVSPropertyOp5
 70
     1
102
RTVSPropertyOp6
 70
     1
102
RTVSPropertyOp7
 70
     1
102
RTVSPropertyOp8
 70
     1
102
RTVSPropertyOp9
 70
     1
102
RTVSPropertyOp10
 70
     1
102
RTVSPropertyOp11
 70
     1
102
RTVSPropertyOp12
 70
     1
102
RTVSPropertyOp13
 70
     1
102
RTVSPropertyOp14
 70
     1
102
RTVSPropertyOp15
 70
     1
102
RTVSPropertyOp16
 70
     1
102
RTVSPropertyOp17
 70
     1
102
RTVSPropertyOp18
 70
     1
102
RTVSPropertyOp19
 70
     1
102
RTVSPropertyOp20
 70
     1
102
RTVSPropertyOp21
 70
     1
102
RTVSPropertyOp22
 70
     1
102
RTVSPropertyOp23
 70
     1
102
RTVSPropertyOp24
 70
     1
102
RTVSPropertyOp25
 70
     1
102
RTVSPropertyOp26
 70
     1
102
RTVSPropertyOp27
 70
     1
102
RTVSPropertyOp28
 70
     1
102
RTVSPropertyOp29
 70
     1
102
RTVSPropertyOp30
 70
     1
102
RTVSPropertyOp31
 70
     1
102
RTVSPropertyOp32
 70
     1
  0
XRECORD
  5
3DF
102
{ACAD_REACTORS
330
3DE
102
}
330
3DE
100
AcDbXrecord
280
     1
102
RTVSPropertyOp0
 70
     1
102
RTVSPropertyOp1
 70
     1
102
RTVSPropertyOp2
 70
     1
102
RTVSPropertyOp3
 70
     1
102
RTVSPropertyOp4
 70
     1
102
RTVSPropertyOp5
 70
     1
102
RTVSPropertyOp6
 70
     1
102
RTVSPropertyOp7
 70
     1
102
RTVSPropertyOp8
 70
     1
102
RTVSPropertyOp9
 70
     1
102
RTVSPropertyOp10
 70
     1
102
RTVSPropertyOp11
 70
     1
102
RTVSPropertyOp12
 70
     1
102
RTVSPropertyOp13
 70
     1
102
RTVSPropertyOp14
 70
     1
102
RTVSPropertyOp15
 70
     1
102
RTVSPropertyOp16
 70
     1
102
RTVSPropertyOp17
 70
     1
102
RTVSPropertyOp18
 70
     1
102
RTVSPropertyOp19
 70
     1
102
RTVSPropertyOp20
 70
     1
102
RTVSPropertyOp21
 70
     1
102
RTVSPropertyOp22
 70
     1
102
RTVSPropertyOp23
 70
     1
102
RTVSPropertyOp24
 70
     1
102
RTVSPropertyOp25
 70
     1
102
RTVSPropertyOp26
 70
     1
102
RTVSPropertyOp27
 70
     1
102
RTVSPropertyOp28
 70
     1
102
RTVSPropertyOp29
 70
     1
102
RTVSPropertyOp30
 70
     1
102
RTVSPropertyOp31
 70
     1
102
RTVSPropertyOp32
 70
     1
  0
XRECORD
  5
3E7
102
{ACAD_REACTORS
330
3E6
102
}
330
3E6
100
AcDbXrecord
280
     1
102
RTVSPropertyOp0
 70
     1
102
RTVSPropertyOp1
 70
     1
102
RTVSPropertyOp2
 70
     1
102
RTVSPropertyOp3
 70
     1
102
RTVSPropertyOp4
 70
     1
102
RTVSPropertyOp5
 70
     1
102
RTVSPropertyOp6
 70
     1
102
RTVSPropertyOp7
 70
     1
102
RTVSPropertyOp8
 70
     1
102
RTVSPropertyOp9
 70
     1
102
RTVSPropertyOp10
 70
     1
102
RTVSPropertyOp11
 70
     1
102
RTVSPropertyOp12
 70
     1
102
RTVSPropertyOp13
 70
     1
102
RTVSPropertyOp14
 70
     1
102
RTVSPropertyOp15
 70
     1
102
RTVSPropertyOp16
 70
     1
102
RTVSPropertyOp17
 70
     1
102
RTVSPropertyOp18
 70
     1
102
RTVSPropertyOp19
 70
     1
102
RTVSPropertyOp20
 70
     1
102
RTVSPropertyOp21
 70
     1
102
RTVSPropertyOp22
 70
     1
102
RTVSPropertyOp23
 70
     1
102
RTVSPropertyOp24
 70
     1
102
RTVSPropertyOp25
 70
     1
102
RTVSPropertyOp26
 70
     1
102
RTVSPropertyOp27
 70
     1
102
RTVSPropertyOp28
 70
     1
102
RTVSPropertyOp29
 70
     1
102
RTVSPropertyOp30
 70
     1
102
RTVSPropertyOp31
 70
     1
102
RTVSPropertyOp32
 70
     1
  0
XRECORD
  5
3DB
102
{ACAD_REACTORS
330
3DA
102
}
330
3DA
100
AcDbXrecord
280
     1
102
RTVSPropertyOp0
 70
     1
102
RTVSPropertyOp1
 70
     1
102
RTVSPropertyOp2
 70
     1
102
RTVSPropertyOp3
 70
     1
102
RTVSPropertyOp4
 70
     1
102
RTVSPropertyOp5
 70
     1
102
RTVSPropertyOp6
 70
     1
102
RTVSPropertyOp7
 70
     1
102
RTVSPropertyOp8
 70
     1
102
RTVSPropertyOp9
 70
     1
102
RTVSPropertyOp10
 70
     1
102
RTVSPropertyOp11
 70
     1
102
RTVSPropertyOp12
 70
     1
102
RTVSPropertyOp13
 70
     1
102
RTVSPropertyOp14
 70
     1
102
RTVSPropertyOp15
 70
     1
102
RTVSPropertyOp16
 70
     1
102
RTVSPropertyOp17
 70
     1
102
RTVSPropertyOp18
 70
     1
102
RTVSPropertyOp19
 70
     1
102
RTVSPropertyOp20
 70
     1
102
RTVSPropertyOp21
 70
     1
102
RTVSPropertyOp22
 70
     1
102
RTVSPropertyOp23
 70
     1
102
RTVSPropertyOp24
 70
     1
102
RTVSPropertyOp25
 70
     1
102
RTVSPropertyOp26
 70
     1
102
RTVSPropertyOp27
 70
     1
102
RTVSPropertyOp28
 70
     1
102
RTVSPropertyOp29
 70
     1
102
RTVSPropertyOp30
 70
     1
102
RTVSPropertyOp31
 70
     1
102
RTVSPropertyOp32
 70
     1
  0
XRECORD
  5
3DD
102
{ACAD_REACTORS
330
3DC
102
}
330
3DC
100
AcDbXrecord
280
     1
102
RTVSPropertyOp0
 70
     1
102
RTVSPropertyOp1
 70
     1
102
RTVSPropertyOp2
 70
     1
102
RTVSPropertyOp3
 70
     1
102
RTVSPropertyOp4
 70
     1
102
RTVSPropertyOp5
 70
     1
102
RTVSPropertyOp6
 70
     1
102
RTVSPropertyOp7
 70
     1
102
RTVSPropertyOp8
 70
     1
102
RTVSPropertyOp9
 70
     1
102
RTVSPropertyOp10
 70
     1
102
RTVSPropertyOp11
 70
     1
102
RTVSPropertyOp12
 70
     1
102
RTVSPropertyOp13
 70
     1
102
RTVSPropertyOp14
 70
     1
102
RTVSPropertyOp15
 70
     1
102
RTVSPropertyOp16
 70
     1
102
RTVSPropertyOp17
 70
     1
102
RTVSPropertyOp18
 70
     1
102
RTVSPropertyOp19
 70
     1
102
RTVSPropertyOp20
 70
     1
102
RTVSPropertyOp21
 70
     1
102
RTVSPropertyOp22
 70
     1
102
RTVSPropertyOp23
 70
     1
102
RTVSPropertyOp24
 70
     1
102
RTVSPropertyOp25
 70
     1
102
RTVSPropertyOp26
 70
     1
102
RTVSPropertyOp27
 70
     1
102
RTVSPropertyOp28
 70
     1
102
RTVSPropertyOp29
 70
     1
102
RTVSPropertyOp30
 70
     1
102
RTVSPropertyOp31
 70
     1
102
RTVSPropertyOp32
 70
     1
  0
XRECORD
  5
3E5
102
{ACAD_REACTORS
330
3E4
102
}
330
3E4
100
AcDbXrecord
280
     1
102
RTVSPropertyOp0
 70
     1
102
RTVSPropertyOp1
 70
     1
102
RTVSPropertyOp2
 70
     1
102
RTVSPropertyOp3
 70
     1
102
RTVSPropertyOp4
 70
     1
102
RTVSPropertyOp5
 70
     1
102
RTVSPropertyOp6
 70
     1
102
RTVSPropertyOp7
 70
     1
102
RTVSPropertyOp8
 70
     1
102
RTVSPropertyOp9
 70
     1
102
RTVSPropertyOp10
 70
     1
102
RTVSPropertyOp11
 70
     1
102
RTVSPropertyOp12
 70
     1
102
RTVSPropertyOp13
 70
     1
102
RTVSPropertyOp14
 70
     1
102
RTVSPropertyOp15
 70
     1
102
RTVSPropertyOp16
 70
     1
102
RTVSPropertyOp17
 70
     1
102
RTVSPropertyOp18
 70
     1
102
RTVSPropertyOp19
 70
     1
102
RTVSPropertyOp20
 70
     1
102
RTVSPropertyOp21
 70
     1
102
RTVSPropertyOp22
 70
     1
102
RTVSPropertyOp23
 70
     1
102
RTVSPropertyOp24
 70
     1
102
RTVSPropertyOp25
 70
     1
102
RTVSPropertyOp26
 70
     1
102
RTVSPropertyOp27
 70
     1
102
RTVSPropertyOp28
 70
     1
102
RTVSPropertyOp29
 70
     1
102
RTVSPropertyOp30
 70
     1
102
RTVSPropertyOp31
 70
     1
102
RTVSPropertyOp32
 70
     1
  0
XRECORD
  5
3C9
102
{ACAD_REACTORS
330
3C8
102
}
330
3C8
100
AcDbXrecord
280
     1
102
RTVSPropertyOp0
 70
     1
102
RTVSPropertyOp1
 70
     1
102
RTVSPropertyOp2
 70
     1
102
RTVSPropertyOp3
 70
     1
102
RTVSPropertyOp4
 70
     1
102
RTVSPropertyOp5
 70
     1
102
RTVSPropertyOp6
 70
     1
102
RTVSPropertyOp7
 70
     1
102
RTVSPropertyOp8
 70
     1
102
RTVSPropertyOp9
 70
     1
102
RTVSPropertyOp10
 70
     1
102
RTVSPropertyOp11
 70
     1
102
RTVSPropertyOp12
 70
     1
102
RTVSPropertyOp13
 70
     1
102
RTVSPropertyOp14
 70
     1
102
RTVSPropertyOp15
 70
     1
102
RTVSPropertyOp16
 70
     1
102
RTVSPropertyOp17
 70
     1
102
RTVSPropertyOp18
 70
     1
102
RTVSPropertyOp19
 70
     1
102
RTVSPropertyOp20
 70
     1
102
RTVSPropertyOp21
 70
     1
102
RTVSPropertyOp22
 70
     1
102
RTVSPropertyOp23
 70
     1
102
RTVSPropertyOp24
 70
     1
102
RTVSPropertyOp25
 70
     1
102
RTVSPropertyOp26
 70
     1
102
RTVSPropertyOp27
 70
     1
102
RTVSPropertyOp28
 70
     1
102
RTVSPropertyOp29
 70
     1
102
RTVSPropertyOp30
 70
     1
102
RTVSPropertyOp31
 70
     1
102
RTVSPropertyOp32
 70
     1
  0
XRECORD
  5
3CB
102
{ACAD_REACTORS
330
3CA
102
}
330
3CA
100
AcDbXrecord
280
     1
102
RTVSPropertyOp0
 70
     1
102
RTVSPropertyOp1
 70
     1
102
RTVSPropertyOp2
 70
     1
102
RTVSPropertyOp3
 70
     1
102
RTVSPropertyOp4
 70
     1
102
RTVSPropertyOp5
 70
     1
102
RTVSPropertyOp6
 70
     1
102
RTVSPropertyOp7
 70
     1
102
RTVSPropertyOp8
 70
     1
102
RTVSPropertyOp9
 70
     1
102
RTVSPropertyOp10
 70
     1
102
RTVSPropertyOp11
 70
     1
102
RTVSPropertyOp12
 70
     1
102
RTVSPropertyOp13
 70
     1
102
RTVSPropertyOp14
 70
     1
102
RTVSPropertyOp15
 70
     1
102
RTVSPropertyOp16
 70
     1
102
RTVSPropertyOp17
 70
     1
102
RTVSPropertyOp18
 70
     1
102
RTVSPropertyOp19
 70
     1
102
RTVSPropertyOp20
 70
     1
102
RTVSPropertyOp21
 70
     1
102
RTVSPropertyOp22
 70
     1
102
RTVSPropertyOp23
 70
     1
102
RTVSPropertyOp24
 70
     1
102
RTVSPropertyOp25
 70
     1
102
RTVSPropertyOp26
 70
     1
102
RTVSPropertyOp27
 70
     1
102
RTVSPropertyOp28
 70
     1
102
RTVSPropertyOp29
 70
     1
102
RTVSPropertyOp30
 70
     1
102
RTVSPropertyOp31
 70
     1
102
RTVSPropertyOp32
 70
     1
  0
XRECORD
  5
3CD
102
{ACAD_REACTORS
330
3CC
102
}
330
3CC
100
AcDbXrecord
280
     1
102
RTVSPropertyOp0
 70
     1
102
RTVSPropertyOp1
 70
     1
102
RTVSPropertyOp2
 70
     1
102
RTVSPropertyOp3
 70
     1
102
RTVSPropertyOp4
 70
     1
102
RTVSPropertyOp5
 70
     1
102
RTVSPropertyOp6
 70
     1
102
RTVSPropertyOp7
 70
     1
102
RTVSPropertyOp8
 70
     1
102
RTVSPropertyOp9
 70
     1
102
RTVSPropertyOp10
 70
     1
102
RTVSPropertyOp11
 70
     1
102
RTVSPropertyOp12
 70
     1
102
RTVSPropertyOp13
 70
     1
102
RTVSPropertyOp14
 70
     1
102
RTVSPropertyOp15
 70
     1
102
RTVSPropertyOp16
 70
     1
102
RTVSPropertyOp17
 70
     1
102
RTVSPropertyOp18
 70
     1
102
RTVSPropertyOp19
 70
     1
102
RTVSPropertyOp20
 70
     1
102
RTVSPropertyOp21
 70
     1
102
RTVSPropertyOp22
 70
     1
102
RTVSPropertyOp23
 70
     1
102
RTVSPropertyOp24
 70
     1
102
RTVSPropertyOp25
 70
     1
102
RTVSPropertyOp26
 70
     1
102
RTVSPropertyOp27
 70
     1
102
RTVSPropertyOp28
 70
     1
102
RTVSPropertyOp29
 70
     1
102
RTVSPropertyOp30
 70
     1
102
RTVSPropertyOp31
 70
     1
102
RTVSPropertyOp32
 70
     1
  0
XRECORD
  5
3CF
102
{ACAD_REACTORS
330
3CE
102
}
330
3CE
100
AcDbXrecord
280
     1
102
RTVSPropertyOp0
 70
     1
102
RTVSPropertyOp1
 70
     1
102
RTVSPropertyOp2
 70
     1
102
RTVSPropertyOp3
 70
     1
102
RTVSPropertyOp4
 70
     1
102
RTVSPropertyOp5
 70
     1
102
RTVSPropertyOp6
 70
     1
102
RTVSPropertyOp7
 70
     1
102
RTVSPropertyOp8
 70
     1
102
RTVSPropertyOp9
 70
     1
102
RTVSPropertyOp10
 70
     1
102
RTVSPropertyOp11
 70
     1
102
RTVSPropertyOp12
 70
     1
102
RTVSPropertyOp13
 70
     1
102
RTVSPropertyOp14
 70
     1
102
RTVSPropertyOp15
 70
     1
102
RTVSPropertyOp16
 70
     1
102
RTVSPropertyOp17
 70
     1
102
RTVSPropertyOp18
 70
     1
102
RTVSPropertyOp19
 70
     1
102
RTVSPropertyOp20
 70
     1
102
RTVSPropertyOp21
 70
     1
102
RTVSPropertyOp22
 70
     1
102
RTVSPropertyOp23
 70
     1
102
RTVSPropertyOp24
 70
     1
102
RTVSPropertyOp25
 70
     1
102
RTVSPropertyOp26
 70
     1
102
RTVSPropertyOp27
 70
     1
102
RTVSPropertyOp28
 70
     1
102
RTVSPropertyOp29
 70
     1
102
RTVSPropertyOp30
 70
     1
102
RTVSPropertyOp31
 70
     1
102
RTVSPropertyOp32
 70
     1
  0
XRECORD
  5
3E3
102
{ACAD_REACTORS
330
3E2
102
}
330
3E2
100
AcDbXrecord
280
     1
102
RTVSPropertyOp0
 70
     1
102
RTVSPropertyOp1
 70
     1
102
RTVSPropertyOp2
 70
     1
102
RTVSPropertyOp3
 70
     1
102
RTVSPropertyOp4
 70
     1
102
RTVSPropertyOp5
 70
     1
102
RTVSPropertyOp6
 70
     1
102
RTVSPropertyOp7
 70
     1
102
RTVSPropertyOp8
 70
     1
102
RTVSPropertyOp9
 70
     1
102
RTVSPropertyOp10
 70
     1
102
RTVSPropertyOp11
 70
     1
102
RTVSPropertyOp12
 70
     1
102
RTVSPropertyOp13
 70
     1
102
RTVSPropertyOp14
 70
     1
102
RTVSPropertyOp15
 70
     1
102
RTVSPropertyOp16
 70
     1
102
RTVSPropertyOp17
 70
     1
102
RTVSPropertyOp18
 70
     1
102
RTVSPropertyOp19
 70
     1
102
RTVSPropertyOp20
 70
     1
102
RTVSPropertyOp21
 70
     1
102
RTVSPropertyOp22
 70
     1
102
RTVSPropertyOp23
 70
     1
102
RTVSPropertyOp24
 70
     1
102
RTVSPropertyOp25
 70
     1
102
RTVSPropertyOp26
 70
     1
102
RTVSPropertyOp27
 70
     1
102
RTVSPropertyOp28
 70
     1
102
RTVSPropertyOp29
 70
     1
102
RTVSPropertyOp30
 70
     1
102
RTVSPropertyOp31
 70
     1
102
RTVSPropertyOp32
 70
     1
  0
XRECORD
  5
3D9
102
{ACAD_REACTORS
330
3D8
102
}
330
3D8
100
AcDbXrecord
280
     1
102
RTVSPropertyOp0
 70
     1
102
RTVSPropertyOp1
 70
     1
102
RTVSPropertyOp2
 70
     1
102
RTVSPropertyOp3
 70
     1
102
RTVSPropertyOp4
 70
     1
102
RTVSPropertyOp5
 70
     1
102
RTVSPropertyOp6
 70
     1
102
RTVSPropertyOp7
 70
     1
102
RTVSPropertyOp8
 70
     1
102
RTVSPropertyOp9
 70
     1
102
RTVSPropertyOp10
 70
     1
102
RTVSPropertyOp11
 70
     1
102
RTVSPropertyOp12
 70
     1
102
RTVSPropertyOp13
 70
     1
102
RTVSPropertyOp14
 70
     1
102
RTVSPropertyOp15
 70
     1
102
RTVSPropertyOp16
 70
     1
102
RTVSPropertyOp17
 70
     1
102
RTVSPropertyOp18
 70
     1
102
RTVSPropertyOp19
 70
     1
102
RTVSPropertyOp20
 70
     1
102
RTVSPropertyOp21
 70
     1
102
RTVSPropertyOp22
 70
     1
102
RTVSPropertyOp23
 70
     1
102
RTVSPropertyOp24
 70
     1
102
RTVSPropertyOp25
 70
     1
102
RTVSPropertyOp26
 70
     1
102
RTVSPropertyOp27
 70
     1
102
RTVSPropertyOp28
 70
     1
102
RTVSPropertyOp29
 70
     1
102
RTVSPropertyOp30
 70
     1
102
RTVSPropertyOp31
 70
     1
102
RTVSPropertyOp32
 70
     1
  0
XRECORD
  5
3E1
102
{ACAD_REACTORS
330
3E0
102
}
330
3E0
100
AcDbXrecord
280
     1
102
RTVSPropertyOp0
 70
     1
102
RTVSPropertyOp1
 70
     1
102
RTVSPropertyOp2
 70
     1
102
RTVSPropertyOp3
 70
     1
102
RTVSPropertyOp4
 70
     1
102
RTVSPropertyOp5
 70
     1
102
RTVSPropertyOp6
 70
     1
102
RTVSPropertyOp7
 70
     1
102
RTVSPropertyOp8
 70
     1
102
RTVSPropertyOp9
 70
     1
102
RTVSPropertyOp10
 70
     1
102
RTVSPropertyOp11
 70
     1
102
RTVSPropertyOp12
 70
     1
102
RTVSPropertyOp13
 70
     1
102
RTVSPropertyOp14
 70
     1
102
RTVSPropertyOp15
 70
     1
102
RTVSPropertyOp16
 70
     1
102
RTVSPropertyOp17
 70
     1
102
RTVSPropertyOp18
 70
     1
102
RTVSPropertyOp19
 70
     1
102
RTVSPropertyOp20
 70
     1
102
RTVSPropertyOp21
 70
     1
102
RTVSPropertyOp22
 70
     1
102
RTVSPropertyOp23
 70
     1
102
RTVSPropertyOp24
 70
     1
102
RTVSPropertyOp25
 70
     1
102
RTVSPropertyOp26
 70
     1
102
RTVSPropertyOp27
 70
     1
102
RTVSPropertyOp28
 70
     1
102
RTVSPropertyOp29
 70
     1
102
RTVSPropertyOp30
 70
     1
102
RTVSPropertyOp31
 70
     1
102
RTVSPropertyOp32
 70
     1
  0
ENDSEC
  0
EOF
